Kid Abelha

Como Eu Quero

Kid Abelha

2.754 exibições
Intro e Riff 1
G|------------------------------------------------------|
D|0-0-2-3-3-2-0---2-3-4-5-------0-0-2-3-3-2-------------|
A|--------------3---------0-3-4-------------------------|
E|------------------------------------------1-1-1-1-2-3-|
  


Riff 2
G|---------------------------------|
D|-------2-3-5-3-2-----------3-0---|
A|-3-5-------------5-0-0-3-5-----3-|
E|---------------------------------|
  

Refrão
G|----------------------|
D|----0-2-2-2-3-3-3-2-0-|
A|0-4-------------------|
E|----------------------|


Enviada por Sem inscrição
Nº de acordes: