Jota Quest

Na Moral

Jota Quest

2.570 exibições
Intro/refrao

G |-------------------------------------|
D |------------------2-5/5-----0--------|
A |--------------3-5-------3/3---3------|
E |--0-0-3-4-5-5-------------------5-0--|


G |--------------------------0-2-5-2--|
D |----------------7-7---5-5----------|
A |-----------------------------------|
E |--0-0-3-4-5-5-5-----3--------------|


Obs: essa introducao serve para as levadas do refrao.
Agora passamos para parte que a música é cantada.


G |-----------------------|    isso se repete ate o refrao
D |----------0-1-2--------|
A |----2-2-0-------2-2-0--|
E |--0--------------------|


Enviada por Sem inscrição
Nº de acordes: