Jota Quest

Mais Uma Vez

Jota Quest

4.235 exibições
A Intodução é uma vez a guitarra com a bateria depois entra o baixo!
Intro: 
G|------------------------------------------------|
D|------------------------------------------------|
A|--1-1-------------------------1-1--3-4-5----6---|
E|-------1-1--3-3---------------------------3-----|

FICA NESSE RIFF ATÉ O REFRÃO
G|------------------------------------------------|
D|------------------3---3H5-----------------------|
A|--1-1-----------5---5-----3-5-X-1-1--3-4-5----6-|
E|-------1-1--3-3-----------------------------3---|

REFRÃO:
G|------------------------------------------------|
D|------------------------------------------------|
A|-6-6--X-5-5--X-3-3---3---3H5--6-6--X-8-8--9-----|
E|-------------------5---5--------------------3---|

G|------------------------------------------------|
D|------------------------------------------------|
A|-6-6--X-5-5--X-3-3---3---3H5--55555555--6666----|
E|-------------------5---5------------------------|      


Enviada por Sem inscrição
Nº de acordes: