John Lennon

Jealous Guy

John Lennon

230 exibições
G|-----------------------------------------------|
D|--5--3---------3-5--3--------------------------|
A|--------3--5-5---------1---0-----------5--3----|
E|------------------------------3--2--0--------3-|

G|-------------------------------------9-9-------------------------|
D|-----4-5-----------------------5-7h9----97-----------------------|
A|-3-5------7--5--5-5--5-5-6-7--------------7--5----5-5-6-7--7-5-3-|
E|--------------------------------------------5--------------------|

G|----------------------------------------------------|
D|---5--3---------3535--3----------------------------|
A|-5-------3--5-5----------1--0------------5--3-3-----|
E|------------------------------4-3--2--0---------5-3-|

G|----------------------------------------------7-7h9-9--9-9-------------------------|
D|---------4-5-----------------------------5-79------------------------------2-------|
A|-----3-5------(7)--3-5-3-55----5--5-5--7------------------3-5-3-55-7-5-7----2--7-3-|
E|-3-6------------------------35-------------------------------------------0---0-----|

G|---------------------------------------------------------|
D|-5-------5--3---------3535--3------------------------(5)-|
A|---3-3535------3--5-5----------1--0------------5--3------|
E|------------------------------------4-3--2--0------------|

G|-----------------------------------------9h11-9-----------------------------------|
D|-----4-(5)--------------------------------------9--------------------7-9p7--------|
A|-3-5--------(7)--3-5--5-55-5-5---5-5--7-----------7---67-7--5-55--57------7-5-2-3-|
E|-------------------------------5---------------------7----------------------------|

G|---------------------------------------------------------------------------|
D|---5--53--3-------3535--53--3----------------------------------------------|
A|-5---------3-3-55------------1--01------------5--3--3----3--3----3--3------|
E|-----------------------------------4-3--2--0---------3--5----3--5--5--5-3--|
 


Enviada por Sem inscrição
Nº de acordes: