Guns N`Roses

Don't Cry

Guns N`Roses

3.721 exibições
Tuning: 1 half step down on E ( dizzy tunes down a half step on all of the strings but you don’t need to).

INTRO come in after the guitar leads you in

G------------------------|
D------------------------|
A-2-1-2-1—4------------|
E------------5—-3—5--|

Verses are all the same
G-------------------------------------------------------------|
D-------------------------------------------------------------|
A----4---2-1-2-1----4---2-1-2-1---4---2-1-2-1—4---2-1-------|
E--5---3-----------5---3-----------5---3----------5---3-----5-|

1st and 2nd chorus

G-------------------------------------------------------------|
D-------------------------------------------------------------|
A---------------------------------------------------2-1-------|
E-1-1-3-3-5-5-5-3-1-1-3-3-5-5-5-3-1-1-3-3------5-3-1-1-3-3-5--|

 Solo
G------------------------------------------------------------------------|
D------------------------------------------------------------------------|
A-4--2--1----------------------------------------------------------------|
E----------5-3-1-1-3-3-5-5-5-3-1-1-3-3-0-0-1-1-1-1-1-3-3-3-3-5-----------|

Last chorus:

G-------------------------------------------------------------------------------------|
D-------------------------------------------------------------------------------------|
A----------------------------------------------------2-1------------------------------|
E-1-1-3-3-5-5-5-3-1-1-3-3-5-5-5-3-1-1-3-3------5-3-1-1-3-3-1-1--3-3-1-1-3-3-0-0-0-0-1-|

G------------------------------------------|
D------------------------------------------|
A----------------------------------------2-|
E-1-1-1-1-1-3-3-1-1-3-3-1-1-3-3------------|


Enviada por Sem inscrição
Nº de acordes: