Green Day

Nuclear Family

Green Day

24 exibições
Intro
G|------------|
D|------------|
A|--7---------|
E|------------|

G|----------------------------------|
D|----------------------------------|
A|--7777777777777777--------777----7| x2
E|------------------55555555---7-77-|

Verse
G|------------------|
D|------------------|
A|----------777----7| x4
E|--5-555555---7-77-|

Chorus
G|-------------------------------------------------------------------|
D|-------------------------------------------------------------------|
A|------------------/(12)121212121212121212121212(11)11-9--7-77-77-77|
E|--5555555555555555-------------------------------------------------|

G|---------------------------------------------------------------------|
D|---------------------------------------------------------------------|
A|------------------/(12)12121212121212121212121212(11)12-9-9999-9999-7|
E|--5555555555555555---------------------------------------------------|

Verse II
G|--------------------------------|    G|------------------|
D|--------------------------------|    D|------------------|
A|----------777----677-677-677-677| x2 A|----------777----7| x2
E|--5-555555---7-77---------------|    E|--5-555555---7-77-|

Chorus 

Bridge
G|----------------------------------|
D|----------------------------------|
A|--677-677-677-677---------777-----|
E|------------------5-555555---7-77-|

G|----------------------------------------|
D|----------------------------------------|
A|--77-66-44-22--------------------777----|
E|--------------55-44-22-0-5-555555---7-77|

Solo
G|-------------------------------------------------------------------|
D|-------------------------------------------------------------------|
A|------------------/(12)121212121212121212121212(11)11-9--7-77-77-77|
E|--5555555555555555-------------------------------------------------|

G|---------------------------------------------------------------------|
D|---------------------------------------------------------------------|
A|------------------/(12)12121212121212121212121212(11)12-9-9999-9999-7|
E|--5555555555555555---------------------------------------------------|

Verse x4

Chorus

Outro                    Play this at 'Five!'
G|-----------------|     G|-------------------|
D|-----------------|     D|-------------------|    
A|--77-7777-77-777-| x5  A|--77-7777----------| x3 
E|-----------------|     E|---------55-44-22-0|    

End with
G|-----|
D|-----|
A|-/7--|
E|-----|


Enviada por Sem inscrição
Nº de acordes: