Green Day

Macy's Day Parade

Green Day

110 exibições
verces:
G|-------------------------------------------------------
D|-------------------------------------------------------
A|-----------------------------------0-0-0--0-0-0--0-0-0-
E|-8-8--8-8-8--8-8-8--8-8-8--8-8-8-8---------------------
          (verce 2)
---------|--------------------------------------------------|
---------|--------------------------------------------------|
-0-0-0-0-|8-8-8--8-8-8-8-10-10-10--10-10-10-10--------------|
---------|-------------------------------------8-8-8--8-8-8-|

verce 1:
G|----------------------------------------------------------
D|----------------------------------------------------------
A|-8-8--8-8-8--8-8-8--8-8-8-8-10-10-10--10-10-10--10-10-10--
E|---------------------------------------------------------8

------------------------------------|
------------------------------------|  
------------------------------------|
-8-8--8-8-8--8-8-8------------------|

bridge:
G|-------------------------------------------------------
D|-------------------------------------------------------
A|-----------------------------------0-0-0--0-0-0--0-0-0-
E|-8-8--8-8-8--8-8-8--8-8-8--8-8-8-8---------------------

-----------------------------------------------------------|
-----------------------------------------------------------|
-0-0-0-0-8-8-8--8-8-8-8-10-10-10--10-10-10-10--------------|
----------------------------------------------8-8-8--8-8-8-|
chorus:
G|----------------------------------------------------------
D|----------------------------------------------------------
A|-8-8--8-8-8--8-8-8--8-8-8-8-10-10-10--10-10-10--10-10-10--
E|---------------------------------------------------------8
--------------------------------------------------------|
--------------------------------------------------------|
-----10-10-10-9-8-8-8-8-8-8-8-8-------10-10-10-10-------|
88888--------------------------8-8-8-8------------8-8---|
chorus 1:
G|----------------------------------------------------------
D|----------------------------------------------------------
A|-8-8--8-8-8--8-8-8--8-8-8-8-10-10-10--10-10-10--10-10-10--
E|---------------------------------------------------------8
--------------------------------------------------|
--------------------------------------------------|
-----10-10-10-9-8-8-8-8-8-8-8-8-------10-10-10-10-|
88888--------------------------8-8-8-8------------|

verce  (4x)
verce1 (1x)
verce2 (1x)
verce  (1x)
chorus (1x)
bridge (1x)
verce2 (1x)
chorus1(2x)
chorus (1x)
 
 Obs: Na  saida de cada refrão tem um efeito q controla
 a batida na guitarra, infelismente eu não concegui 
 tira-la, caso você souber me mande um e-mail com o tab.
 Eu não tenho certeza do time e da quantidade de batidas
 em cada corda, ouça a musica e tente acompanhar os 
 acordes da guitarra.
 


_______________________________________________________
Contribuição: Gustavo N. Lago(metalica_rp@hotmail.com)


Enviada por Sem inscrição
Nº de acordes: