Green Day

Jesus Of Suburbia

Green Day

714 exibições
Verse:    
   C#5        A#5  	 F#5		  G#5
G|---------------------------------------------------------|
D|---------------------------------------------------------|
A|-4-4-4-4-------------------------------------------------|
E|------------6-6-6-6----222222222222222--444444444444444--|

Chorus:
   F#5   G#5	x3
G|--------------|
D|--------------|
A|--------------|
E|-2222--44444--|

Bridge:
   C#5  G#5  F#5	x2
G|----------------------|
D|----------------------|
A|-4-4------------------|
E|------4-4--2-2222222--|

Outro:
   C#5        F5  	 A#5  	G#5    F#5
G|----------------------------------------|
D|----------------------------------------|
A|-4-4-4-4--------------------------------|
E|------------1-1-1-1----6-6-6--4-4-4--2--|
				      
 				
Ordem:
Verse x2
Chorus
Riff 1
Verse x2
Chorus
Riff 1
Verse (no lyrics)
Outro
  
Letra:

I'm the son of rage and love
The Jesus of suburbia				(Verse 1)
From the Bible of none of the above
On a steady diet of 

Soda pop and Ritalin
No one ever died for my sins in hell		(Verse 2)
As far as I can tell				
At least the ones I've gotten away with

And there's nothing wrong with me
This is how I'm supposed to be			(Chorus)
In a land of make believe
That don't believe in me

Get my television fix 
Sitting on my crucifix				(Verse 3)
The living room in my private womb
While the moms and brads are away

To fall in love and fall in debt
To alcohol and cigarettes 			(Verse 4)
And Mary Jane to keep me insane
And doing someone else's cocaine 

(Chorus)



2.  City of the Damned


Intro:
   F#5	 G#5	entre com o final F#5 de Jesus of Suburbia
G|-----------|
D|-----------|
A|-----------|
E|-2-----4---|

Verse:
   C#5     A#5 G#5    F#5 G#5
G|----------------------------|
D|----------------------------|
A|-4---3----------------------|
E|---------6---4------2---4---|

Chorus:
   A#5   G#5   C#5   F#5   A#5   G#5   F#5
G|-----------------------------------------|
D|-----------------------------------------|
A|-------------4---------------------------|
E|-6-----4-----------2-----6-----4-----2---|

Ordem:

Intro
Verse x2
Chorus
Verse x2
Hold final F#5

Letra:

At the center of the earth
In the parking lot				(Verse 1)
Of the 7-11 were I was taught
The motto was just a lie

It says home is were your heart is
But what a shame				(Verse 2)
Cause everyone's heart doesn't beat the same
We're beating out of time

City of the dead
At the end of another lost highway
Sign misleading to nowhere			(Chorus)
City of the damned
Lost children with there dirty faces today
No one really seems to care

I read the graffiti
In the bathroom stall				(Verse 3)
Like the holy scriptures of a shopping mall
And so it seemed to confess

It didn't say much
But it only confirmed that			(Verse 4)
The center of the earth is the end of the world
And I could really care less 

(Chorus)



3. I Don't Care


Intro: 
   G#5    C#5   G#5    C#5   F#5    C#5     G#5	 x5
e|-----------------------------------------------|
B|-----------------------------------------------|
G|-----------------------------------------------|
D|-----------------------------------------------|
A|--------4------------4------------4------------|
E|-4------------4------------2--------------4----|


Riff 1:
   F#G#5     C#5   A5G#5  x4 	 
G|--------|---------------|
D|--------|---------------|
A|--------|--4------------|
E|-2-4----|--------5-4----|


Verse:
                          A5G#5  x8
G|-------------------------------|
D|-------------------------------|
A|-4-4-4-4-4-4-4-4-4-4-----------|
E|------------------------5-4----|


Chorus:
   F#5  G#5  C#G#5  x3	F#5  G#5
G|------------------|--------------|
D|----------------- |--------------|
A|---------4--------|--------------|
E|-2----4------4----|----2----4----|

Riff 4:
   F#G#5  C#5  x4
G|-------------|
D|-------------|
A|--------4----|
E|-2-4---------|

Outro
   C#5       G#5
G|-------------|
D|-------------|
A|-4-4-4-44----|
E|----------4--|
	   (Let ring)
	    
Order:

Intro w/Intro lead
Intro x4
Riff 1
Verse
Chorus
Riff 2
Outro
	    
Letra:

I don't care if you don't
I don't care if you don't 		(Intro) x4	
I don't care if you don't care
                         
I don't care!				(Riff 1)

Everyone is so full of shit
Burn and raised by hipocrits
Hearts recycled but never saved
From the cradle to the grave		(Verse)	
We are the kids of war and peace
From Anaheim to the Middle Mast
We are the stories and disciples
Of the Jesus of suburbia

Land of make believe
And it don't believe in me		(Chorus)		
Land of make believe
And I don't believe

And I don't care!
I don't care!
I don't care!				(Riff 2)
I don't care!
I don't care!


4.  Dearly Beloved


mantenha sempre o baixo nesse ritmo, entre junto com a distorçao da guitarra:
   
   cada nota no ritmo do som
   G#5  C5   C#5  G#5D#5 x6
G|-----------------------|
D|-----------------------|
A|------3----4-----------|
E|-4--------------4------|


Letra:

Dearly beloved are you listening?
I cant remember a word that you were saying
Are we demented or are we disturbed?
The space that's in between insane and insecure

Oh therapy, can you please fill the void?
Am I retarded or am I just overjoyed
Nobody's perfect and I stand accused
For lack of a better word, and that's my beat excuse


 5.  Tales of Another Broken Home


Intro: 
   G#5                  F#5 C#5  x4
G|-------------------------------|
D|-------------------------------|
A|--------------------------4----|
E|-4---4-4-4-4-4-4-4----2--------|
 
Main Riff:  
   G#5                  F#5 C#5    
G|-------------------------------| 
D|-------------------------------| 
A|--------------------------4----| 
E|-4-4-4-4-4-4-4-4-4----2--------|

Chorus
   C# G# C# G# C#G#  D# G# D# G# D#G#  x2
G|-------------------------------------|
D|-------------------------------------|
A|-4-----4-----4-----------6-----6-----|
E|----4-----4----4------4-----4----4---|

durante o solo toque o chorus riff

Piano:

C#	     D#
I don't feel any shame
  G#	    C#
I wont apologize
C#		 D#		 G#
When there ain't nowhere you can go

C#	 D#
Running away from pain
      G#	       C#
When you've been victimized
C#	    D#
Tales from another broken...


Ordem:

Intro
Main Riff x8
Chorus
Main Riff x8
Chorus x2
Main Riff x2
Main Riff x4 w/Solo 1
Chorus w/Solo 2
Piano Interlude
Main Riff x6


Letra:

To live and not to breathe
Is to die in tragedy			(Verse 1)
To run, to run away
To find what you believe

And I 
Leave behind				(Chorus)
This hurricane of fucking lies

I lost my faith to this
This town that don't exist		(Verse 2)
So I run, I run awy 
The light of masochist

And I 
Leave behind				(Chorus)
This hurricane of fucking lies

And I 
Walked this line			(Chorus 2)
A million and one fucking times

But not this time

I don't feel any shame
I wont apologize
When there ain't nowhere you can go	(Piano Interlude)
Running away from pain
When you've been victimized
Tales from another broken...

Home!
You're leavin'
You're leavin'				

You're leavin'
You're leavin HOME!

essa eh uma das melhores tabs que eu tirei, e a mais certa!!!! 

Feita por Felipe Pozzo
qualquer duvida me mande um e-mail:


Enviada por Sem inscrição
Nº de acordes: