Green Day

Green Day

Green Day

281 exibições
Intro: (Let the notes ring)
------

G---------------
D---------------
A--------5------
E--7--0------7--

G------------------------------------
D-------------------------4p2-1h2p1--  repeat 2x
A----------------2-2-2-2-------------
E--4-4-4-0-0-0-0---------------------

G-----------------------------------
D-----------------------------------
A----------------2-2-2-2-2-2-2-2-2--
E--4-4-4-0-0-0-0--------------------

G-------------------------------
D-------------------------------
A----------------2-2-2-2--0--2--
E--4-4-4-0-0-0-0----------------

Verse:
------

G----------------------------------4--
D----------------------4-----2-2h4----
A--7-7-7-7-5-5-5-5-4-4---4-2----------
E-------------------------------------

G---------------------------------
D---------------------------------
A---------------------------------
E--2-2-2-2-2-5-5-5-5-5-0-0-0-0-0--

Then verse again

Chorus:
-------

G-------------------------------
D-------------------------------
A------------------2-2-2-2-2-2--
E--4-4-4-4-0-0-0-0--------------

G--------------------------------
D--------------------------------
A-----------------2-2-2-2--0--2--
E---4-4-4-0-0-0-0----------------

Then chorus again
Then verse 3x
Then chorus 2x
Then verse 2x

Verse (under guitar solo):
--------------------------

G-------------------------------------
D-------------------------------------
A--7-7-7-7-5-5-5-5-4-4-4-4-2-2-2-2-2--
E-------------------------------------

G---------------------------------
D---------------------------------
A---------------------------------
E--2-2-2-2-2-5-5-5-5-5-0-0-0-0-0--

G------9p7-----7p6-----6p4-----4p2--
D-----------------------------------
A--7-7-----5-5-----4-4-----2-2------
E-----------------------------------

G---------------------------------
D---------------------------------
A---------------------------------
E--2-2-2-2-2-5-5-5-5-5-0-0-0-0-0--

Then verse 2x
Then chorus 2x

Outro:
------

G----------------------------------4-------
D----------------------4-----2-2h4---------
A--7-7-7-7-5-5-5-5-4-4---4-2----------0~~--
E------------------------------------------



_______________________________________________________
Contribuição: Caio Mac Cord(caiomaccord@hotmail.com)


Enviada por Sem inscrição
Nº de acordes: