Green Day

21st Century Breakdown

Green Day

247 exibições
INTRO- play twice befoe lyrics come in

G---------------------------------------------------------|
D---------------------------------------------------------|
A--4-4--4-4-4---------------------------------------------|
E-------------4-4-4--2-2----------------------------------|

VERSE- (same as intro)

G---------------------------------------------------------|
D---------------------------------------------------------|
A--4-4--4-4-4---------------------------------------------|
E-------------4-4-4--2-2----------------------------------|

 Born into nixton, I was raised in hell

G---------------------------------------------------------|
D---------------------------------------------------------|
A--4-4--4-4-4---------------------------------------------|
E-------------4-4-4--2-2----------------------------------|

 A welfare child where the teamsters dwelled

G---------------------------------------------------------|
D---------------------------------------------------------|
A--4-4--4-4-4---------------------------------------------|
E-------------4-4-4--2-2----------------------------------|

  The last one born, the first one to run

G---------------------------------------------------------|
D---------------------------------------------------------|
A--4-4--4-4-4---------------------------------------------|
E-------------4-4-4--2-2----------------------------------|

  My town was blind by refinery sun.


PRE CHROUS

G-----------------------------------------------------|
D-----------------------------------------------------|
A--1-1-1-1-1-1-1-1------------------------------------|
E-----------------------------------------------------|

 My generation is zero

G-----------------------------------------------------|
D-----------------------------------------------------|
A-----------------------------------------------------|
E--2-2-2-2-2-2-2---4-4--------------------------------|

 I never made it as a working class hero


CHROUS

G----------------------------------------------------|
D----------------------------------------------------|
A--4-4-----------------------------------------------|
E------4-4--2-2-2-2-2-2------------------------------|

 21st century breakdown

G----------------------------------------------------|
D----------------------------------------------------|
A--4-4-----------------------------------------------|
E------4-4--2-2-2-2-2-2------------------------------|

 I was lost once but never was found


G----------------------------------------------------|
D----------------------------------------------------|
A--4-4-----------------------------------------------|
E------4-4--2-2-2-2-2-2------------------------------|

 I Think i'm losing what's left on my mind

G----------------------------------------------------|
D----------------------------------------------------|
A--4-4-----------------------------------------------|
E------4-4--2-2-2-2-2-2------------------------------|

 To the 21st century deadline

Back to verse for 2 bars before lyrics re enter

Repeat Verse

Repeat pre chrous

Repeat chrous


Enviada por romeu
Nº de acordes: