Gloria

Minha Paz

Gloria

1.877 exibições
Intro:

G--------------------
D--------------------
A--------------------
E--17/5-555-555--

Verso 1 

G-------------------------
D-------------------------
A--444-444-6--------------
E----------------555-555--

G-----------------------------------
D-----------6-4---------------------
A--444-4-------6-4-6----------------
E------------------------555-0-555--

" Se o tempo parar pra nos dois... "

E-222-0-222-2-4-555-555-

E-222-0-222-2-4-555-777-



" Hoje perco voce... "

G-------------------------------
D-------------------------------
A--44-2-4--44-2-4---------------
E-----------------0*-555-555----

G-------------------------------
D-------------------------------
A--44-2-4--44-2-4---------------
E-----------------0*-555--777---


coro 

G------------------------------------------------
D--------- -------------------------------999(b9)--
A--77777777-88-44444444-66-----------------------
E--------------------------55555555-77777--------

G------------------------------------------------
D-----------------------------------------9999b--
A--77777777-88-44444444-66-----------------------
E--------------------------55555555-77777--------


iNTRO2 E VERSO 2

G----17--17---1(b9)17-----------14--14--14--14----
D------17----------1(b9)17-19/----14------14------
A--15-------15--------------12------12----------
E-----------------------------------------------

G----17--17---1(b9)17-----------14--14-----
D------17----------1(b9)17-19/----14-------
A--15-------15--------------12-------00--
E----------------------------------------



" Se o tempo parar pra nos dois... "

E-222-0-222-2-4-555-555-

A----------------------99(b9)---
E-222-0-222-2-4-555-777-------


coro 

G----------------------------------------------
D-----------------------------------------999(b9)
A--77777777-88-44444444-66---------------------
E--------------------------55555555-77777------

G-----------------------------------------------
D-----------------------------------------999(b9)-
A--77777777-88-44444444-66----------------------
E--------------------------55555555-77777-------

" Outra vez... "


G----------------------------
D----------------------------
A--44-2-4--44-2-4------------
E-----------------0*-555-555-

G-----------------------------
D-----------------------------
A--44-2-4--44-2-4-------------
E-----------------0*-555--555-


" nunca mais.... "

E-22222-0-222222222-4-555555555-7777777-


" viver.. baixinho "

A-77777777-4444444444-121212121212-14141414141414-


" coro "


G---------------------------------------------
D----------------------------------------999(b9)
A--77777777-88-44444444-66--------------------
E--------------------------55555555-77777-----

G----------------------------------------------
D----------------------------------------999(b9)-
A--77777777-88-44444444-66---------------------
E--------------------------55555555-77777------


G----------------------------------------------
D----------------------------------------999(b9)-
A--77777777-88-44444444-66---------------------
E--------------------------55555555-77777------

G-------------------------------------------------
D----------------------------------------9999(b9)---
A--77777777-88-44444444-66--------------------7*--
E--------------------------55555555-77777---------


Enviada por Sem inscrição
Nº de acordes: