INTRO1:
G||------------------|------------------||--------------------|
D||------------------|------------------||--------------------|
A||------------------|------------------||--------------------|
E||------------------|------------------||---0----------------|
                       |2x|
-----------------------|  |-------------------|------------------||
-----------------------|  |-------------------|------------------||
-----------------------|  |-------------------|------------------||
------0--0----0--0-----|  |--0----------------|------------------||

INTRO2:
G||----------------------|------------------------||
D||*---------------------|-----------------------*||
A||*---------------------|-----------------5h-7--*||
E||---0------0--0--------|----0--0----0-----------||

VERSOS 1&2:
                                                  ||4x
G||----------------------|------------------------||
D||----------------------|------------------------||
A||----------------------|-----------------5h-7---||
E||---0------0--0--------|----0--0----0-----------||

|----------------------|-----------------------|
|-------4---6----------|--4---2----------4---6-|
|--4--------------2----|------------4----------|
|----------------------|-----------------------|

-----------------------|--------------------|--------------------|
------------6--4-------|--------------------|--------------------|
----------6------6--4--|--------------------|--------------------|
------4----------------|--5--------5\-------|--4--------4\-------|

--------------------|---------------------|----------------------|
--------------------|---------------------|----------------------|
--------------------|---------------------|----------------------|
--5--------5\-------|--7--------7------7--|---7---7---7---7\-----|

REFRÃO:
G||--------------------------|-------------------------|
D||--------------------------|-------------------------|
A||--------------------------|-------------------------|
E||---5----5--5--5--5--5--5--|--7----7--7--7--7--7--7--|
                                                  ||3x
-----------------------|--------------------------||  
-----------------------|-------7--7--7--6--4------||  
--7----7--7----5---7---|--7-------------------7---||
-----------------------|--------------------------||  

|-------------------|-------------------|--------------------------|
|-------------------|-------------------|--------------0-----2--4--|
|--5----------------|--5----------------|--2--2--4--2-----2--------|
|-------------------|-------------------|--------------------------|
                        ||
------------------------||--------------------------|-------------------------|
------------------------||--------------------------|-------------------------|
--2--2--4--2------------||--------------------------|-------------------------|
--------------2----4----||---5----5--5--5--5--5--5--|--7----7--7--7--7--7--7--|
                                                  ||3x
-----------------------|--------------------------||  
-----------------------|-------7--7--7--6--4------||  
--7----7--7----5---7---|--7-------------------7---||
-----------------------|--------------------------||  

|-------------------|-------------------|--------------------------|
|-------------------|-------------------|--------------0-----2--4--|
|--5----------------|--5----------------|--2--2--4--2-----2--------|
|-------------------|-------------------|--------------------------|

-----------------------||
-----------------------||
--2--2--4--2--5\-------||
-----------------------||

SOLO:
G||----------------------|------------------------||
D||*---------------------|-----------------------*||
A||*---------------------|-----------------5h-7--*||
E||---0------0--0--------|----0--0----0-----------||


Enviada por Sem inscrição
Nº de acordes: