Engenheiros do Hawaii

Infinita Highway (Acústico MTV)

Engenheiros do Hawaii

1.695 exibições
intro 

G---------14h16---14h16---14h16-------------------------------------------------|
D--------------------------------16--14-----------------------------------------|
A-------------------------------------------------------------------------------|
E-------------------------------------------------------------------------------|

G---18h19—18--16--18-------18h19—18--16--18-------------------------------------|
D-------------------------------------------------------------------------------|
A-------------------------------------------------------------------------------|
E-------------------------------------------------------------------------------|

G---16h18—16--14------------14--------------------------------------------------|
D----------------16—14--16------16--14------------------------------------------|
A--------------------------------------16--14--16--14--12-----------------------|
E-------------------------------------------------------------------------------|

G----------------2---------6---------7---------9--------------------------------|
D-----77777---------------------------------------------------------------------|
A--------------0---0---2-4---4---4-5---5---5-7---5-5----------------------------|
E-------------------------------------------------------------------------------|

G----------------2---------6---------7---------9--------------------------------|
D-------------------------------------------------------------------------------|
A--------------0---0---2-4---4---4-5---5---5-7---5-5----------------------------|
E-------------------------------------------------------------------------------|

Você me faz correr demais.. o que? O Riscos dessa Highway
Você me faz corre atrás do horizonte dessa Highway
Ninguém por perto, silêncio no deserto...... sabe exatamente onde vai parar.

G------------------------------------------------------------------------------|
D------------------------------------------------------------------------------|
A---0------2--4---4-5—4h5---7—7-5----7-7-5-------------------------------------|
E------1--------------------------8--------8-----------------------------------|

Mas não precisamos saber pra onde vamos, nós só precisamos ir
Não queremos ter o que não temos.. nós só queremos viver
Sem motivos, nem objetivos
 
G------------------------------------------------------------------------------|
D------------------------------------------------------------------------------|
A------5--55--5-----7--77--7---------------------------------------------------|
E--------------------------------2-4-5-4-2-4-5-4-------------------------------|


Estamos vivos e é tudo. È sobretudo a lei.. do que? 

G------------------------------------------------------------------------------|
D------------------------------------------------------------------------------|
A---------4-------5--4-5—4h5---7-----------------------------------------------|
E------5-----2-----------------------------------------------------------------|

Repete tudo até:

Eu vejo o Horizonte Trêmulo...
...parecem facas de dois gumes

G----------------2---------6---------7---------9---------------------------------|
D--------------------------------------------------------------------------------|
A--------------0---0---2-4---4---4-5---5---5-7---5-5-----------------------------|
E--------------------------------------------------------------------------------|

Solo

G--------------------------------------------------------------------------------|
D--------------------------------------------------------------------------------|
A------5--55--5-----7--77--7-----------------------------------------------------|
E--------------------------------2-4-5-4-2-4-5-4---------------------------------|

G--------------------------------------------------------------------------------|
D--------------------------------------------------------------------------------|
A------5--55--5-----7--77--7-----9---9--11---11-12----14-----14-14h15-14-12------|
E----------------------------------8-------9-------10----12----------------------|


G--------------------------------------------------------------------------------|
D--------------------------------------------------------------------------------|
A------5--55--5-----7--77--7-------4-------5—-4--5—4h5-7-77----------------------|
E-------------------------------5-----2------------------------------------------|


G----------------2---------6---------7---------9---------------------------------|
D--------------------------------------------------------------------------------|
A--------------0---0---2-4---4---4-5---5---5-7---5-5-----------------------------|
E--------------------------------------------------------------------------------|

G----------------2---------6---------7---------9---------------------------------|
D--------------------------------------------------------------------------------|
A--------------0---0---2-4---4---4-5---5---5-7---5-5-----------------------------|
E--------------------------------------------------------------------------------|


Minha vida é tão confusa quanto a América Central..
...ou um bitolado...


G--------------------------------------------------------------------------------|
D--------------------------------------------------------------------------------|
A---0---2-4---7--7---------------------------------------------------------------|
E--------------------------------------------------------------------------------|


Mas eu não sou ator, eu não to à toa.. do seu lado

G--------------------------------------------------------------------------------|
D--------------------------------------------------------------------------------|
A---0-2-0--2-4--4---7-7-77----7--5--4--2--0--------------------------------------|
E--------------------------------------------------------------------------------|


Por isso garota, façamos um pacto de não usar a Highway pra causar impacto

G----------------------------------------9------9--------------------------------|
D--------------------------------------------------------------------------------|
A---0------2--4---4-5—4h5---7—7-77---7-7----7-7---7h19---------------------------|
E------1-------------------------------------------------------------------------|

110, 120, 160... 

G--------------------------------------------------------------------------------|
D--------------------------------------------------------------------------------|
A------5--55--5-----7--77--7-----------------------------------------------------|
E--------------------------------2-4-5-4-2-4-5-4---------------------------------|

só pra ver até quando o amor agüenta

G--------------------------------------------------------------------------------|
D--------------------------------------------------------------------------------|
A------5--55--5-----7--77--7----9999999999---------------------------------------|
E--------------------------------------------------------------------------------|

Na boca em vez de um beijo um chicle de menta E asombra de um sorriso que eu deixei... onde foi que eu deixei?


G--------------------9-------11-------13--------14--------16--------16-------16--|
D---------------6--7---7--9-----9--11----11--12----12--14-----14-14----14-14-----|
A--5-4-2-0-7-9-------------------------------------------------------------------|
E--------------------------------------------------------------------------------|

Numa das curvas da Highway

G--------------------------------------------------------------------------------|
D--------------------------------------------------------------------------------|
A-----0-----5-----0-----7------------0-----5-----0-----7-------------------------|
E--------------------------------------------------------------------------------|


Éh.. você me faz.. correr demais.. os riscos dessa highway

G--------------------------------------------------------------------------------|
D--------------------------------------------------------------------------------|
A-----0---2-4---4--2----5h7--5--4--2---0-----------------------------------------|
E--------------------------------------------------------------------------------|

Éh.. você me faz.. correr demais.. os riscos dessa highway
nenhum de nós sabe exatamente onde vai

G--------------------------------------------------------------------------------|
D--------------------------------------------------------------------------------|
A-----0---2-4---4------5h7--5--4--2---0------------------------------------------|
E------------------2-------------------------------------------------------------|






nenhum de nós sabe exatamente onde vai parar.... onde vai.. mas onde vai..?

G--------------------------------------------------------------------------------|
D--------2-----------------------------------------------------------------------|
A-----0-----5---0---7--------00000000----55555555---00000000----77777777---------|
E--------------------------------------------------------------------------------|

Onde é que tudo isso vai parar? Na Infinita...

G--------------------------------------------------------------------------------|
D--------------------------------------------------------------------------------|
A------0000000----55555555---00000000----77777777-----0--5--0--7--0--5-0--7-0----|
E--------------------------------------------------------------------------------|


Enviada por Sem inscrição
Nº de acordes: