Engenheiros do Hawaii

Ilusão De ótica

Engenheiros do Hawaii

109 exibições
intro 

4x

G-----7h9h7--------------------------------------------------------------------|
D-----------9h7----------------------------------------------------------------|
A---7-----------7--------------------------------------------------------------|
E------------------------------------------------------------------------------|

Eu entendo você que não me entende... ....quando eu digo sim, quando eu digo não
Quando eu digo talvez você não entende... as vezes digo sim as vezes digo não

G------------------------------------------------------------------------------|
D------------------------------------------------------------------------------|
A-------2---2-5--55-5/7-------------------5-4-44--2-22--0-00-------------------|
E---0--0-----------------------------------------------------------------------|

Segunda parte repete a mesma coisa
Essa parte entra no solo, após: Os olhos dizem sim, seu olhar diz não

G---------7--7/11--------6—6/9-------------------------------------------------|
D-----5h7------------4h6-------------------------------------------------------|
A---5--------------4-----------------------------------------------------------|
E--------------------------------7-7--5-7-5-7\----7-7--5-7-5-7\----------------|

Na visão da macrostória toda guerra é igual (nada gera um general), na visão do microscópio é o ópio do trivial

G------------------------------------------------------------------------------|
D------------------------------------------------------------------------------|
A---5--55--4-44--5-55--4-44----------------------------------------------------|
E----------------------------7-7--5-7-5-7\----7-7--5-7-5-7\--------------------|

Sou cego, não nego, enxergo como puder, só vejo objeto....

G------------------------------------------------------------------------------|
D------------------------------------------------------------------------------|
A---5--55--4-44--5-55--4-44----------------------------------------------------|
E----------------------------7-----5-------------------------------------------|

Será que você me entende?

G------------------------------------------------------------------------------|
D-------------14-------------9-------------------------------------------------|
A----12—12h14----12\7--7—7h9---------------------------------------------------|
E------------------------------------------------------------------------------|

Não se renda as evidências, não se prenda a primeira impressão

G---------7--7/11--------6—6/9-------------------------------------------------|
D-----5h7------------4h6-------------------------------------------------------|
A---5--------------4-----------------------------------------------------------|
E--------------------------------7---------------------------------------------|
O q não foi impresso, continua sendo escrito à mão.

Não se renda as evidências, não se prenda a primeira impressão

G------------------------------------------------------------------------------|
D------------------------------------------------------------------------------|
A------------------------------------------------------------------------------|
E----0/19------000000000000000000000000000000000000000000000000000000----------|


Enviada por Sem inscrição
Nº de acordes: