Engenheiros do Hawaii

Hora Do Mergulho

Engenheiros do Hawaii

186 exibições
Introdução:

     Lá Lá Lá	Lâ Lâ Lâ
e|------------------------------------
B|------------------------------------
G|------------------------------------
D|------------------------------------
A|----6--7--9---4--6--7--------------- várias vezes
E|------------------------------------

Acima é a introdução no violão ou guitarra,
no baixo é uma oitava acima:

    Lá Lá Lá	Lâ Lâ Lâ

G|--8--9--11----6--8--9---
D|------------------------
A|------------------------ várias vezes
E|------------------------

Pra soar mais bonito, pode ser assim também:

    Lá Lá Lá	Lâ Lâ Lâ
e|------------------------------------
B|------------------------------------
G|------------------------------------
D|-----------------1--2---------------
A|--6--7--9-----4--------------------- várias vezes
E|--7--7--7-----2--2--2---------------

No baixo (uma oitava acima):

    Lá Lá Lá	Lâ Lâ Lâ

G|--8--9--11----6--8--9----
D|--9--9--9-----4--4--4----
A|------------------------- várias vezes
E|-------------------------

Não convém fazer dueto no baixo, porque
tem que esticar muito o dedo e fica difícil

-------------------//------------------------------

Riff de Baixo:

e|---------------------------------
B|---------------------------------
G|---------------------------------
D|---------------------------------
A|-6~-6h7p6-6-4-------------------- várias vezes
E|---------------------------------

A tab acima corresponde ao braço do violão ou guitarra,
no baixo, o ideal seria executar o riff uma oitava acima,
conforme abaixo:

G|-8~-8h9p8-8-6-----------------------
D|------------------------------------
A|------------------------------------ várias vezes
E|------------------------------------

Pro som soar melhor e ficar ainda mais bonito,
pode ser assim também:

e|---------------------------------
B|---------------------------------
G|---------------------------------
D|---------------------------------
A|-6~-6h7p6-6-4-------------------- várias vezes
E|-7--7-----7-2--------------------

No baixo eh exatamente igual, uma oitava acima:

G|-8~-8h9p8-8-6-----------------------
D|-9--9-----9-4-----------------------
A|------------------------------------ várias vezes
E|------------------------------------

Legenda:

h: Hammer On ("martelar" a casa com o dedo da mão esquerda)

p: Pull of   |soltar rapidamente o dedo da mão esquerda na| 
	     |respectiva casa sem tocar com a mão direita|

~: vibrato (vibrar a casa com o dedo da mão esquerda)


Enviada por Sem inscrição
Nº de acordes: