Engenheiros do Hawaii

Herdeiro Da Pampa Pobre

Engenheiros do Hawaii

343 exibições
Intro:

   E               A                E                 A      \ 2a vez /
G|---------------|----------------|-----------------|--------[--------]-|
D|---------------|-------7--------|-----------------|-------7[-------7]-|
A|-------7-------|-0-4-5----------|-------7---------|-0-4-5--[0-4-5---]-| (2x)
E|-0-4-5---------|----------------|-0-4-5---0-4-5-7-|--------[--------]-|

   A               E                                  A
G|---------------|----------------|-----------------|------------------|
D|---------------|----------------|-----------------|------------------|
A|-0-------------|----------------|-----------------|-0----------------| (2x)
E|---------------|-0--------------|-0---------------|------------------|

Verso 1:

   A               E                                  A
G|---------------|----------------|-----------------|------------------|
D|---------------|----------------|-----------------|------------------|
A|-0---2---0---2-|----------------|-----------------|-0----------------| (2x)
E|---------------|-0--------------|-0---2---0---2---|------------------|

   A               E                E                 A    \ 1a vez /
G|---------------|----------------|-----------------|------------------|
D|---------------|----------------|-----------------|------------------|
A|-0---2---0---2-|----------------|-----------------|-0-----[/12--12]--| (2x)
E|---------------|-0-----/12--12--|-0---2---0---2---|------------------|

   E               A                E                 A
G|---------------|----------------|-----------------|-------------------|
D|---------------|-------7--------|-----------------|-------7--------2--|
A|-------7-------|-0-4-5----------|-------7---------|-0-4-5------4-5----|
E|-0-4-5---------|----------------|-0-4-5-----------|-------------------|

   F#              Bm               E                 A
G|---------------|----------------|-----------------|-------------------|
D|-4-------------|----------------|-----------------|-------------------|
A|---------------|-2--------------|-7---------------|-12-12-12-12\------|
E|---------------|----------------|-----------------|-------------------|

Verso 2:

   A
G|-------------------|
D|-------------------|
A|-0-0-0---5-0-4-0-2-|
E|-------------------|

   E                                     A                [não é tocado na 4a vez]
G|-----------------|-------------------|------------------|------------------
D|-----------------|-------------------|------------------|------------------
A|-----------------|--------5---4---2--|-0-0-2-4-0-0-2-4--|-0-0-2--5-0-4-0-2- (4x)
E|-0-0-2-4-0-0-2-4-|-0-0-2----0---0----|------------------|------------------

   E                 A                 E                 A
G|-----------------|-----------------|-----------------|-----------------|
D|-----------------|-------7---------|-----------------|-------7---------|
A|-------7---------|-0-4-5---0-4-5-7-|-------7---------|-0-4-5---0-4-5-7-|
E|-0-4-5---0-4-5-7-|-----------------|-0-4-5---0-4-5-7-|-----------------|

   F#                Bm                E                 A
G|-----------------|-----------------|-----------------|-----------------|
D|-4-4-----4-4-----|-----4-4-----4-4-|-----------------|---------7-7-----|
A|-----4-4-----4-4-|-2-2-----2-2-----|-7-7-----7-7-----|-----7-7-----7-7-|
E|-----------------|-----------------|-----7-7-----7-7-|-5-5-------------|

   F#                Bm                E                 A
G|-----------------|-----------------|-----------------|-----------------|
D|-4-4-----4-4-----|-----4-4-----4-4-|-----------------|-----------------|
A|-----4-4-----4-4-|-2-2-----2-2-----|-7-7-----7-7-----|-12-12-12-12/----|
E|-----------------|-----------------|-----7-7-----7-7-|-----------------|


Solo:

G|------------|-----9-9-----9-9-|------------|-----2-2-----2-2-|
D|------------|-----------------|------------|-----------------|
A|-0--2--4--5-|-7-7-----7-7-----|-7--5--4--2-|-0-0-----0-0-----|
E|------------|-----------------|------------|-----------------|

G|------------|-----9-9-----9-9-|-------------|----------------|
D|------------|-----------------|-------------|----------------|
A|-0--2--4--5-|-7-7-----7-7-----|-/7--5--4--2-|----------------|
E|------------|-----------------|-------------|-5-5-5-5/-------|


Verso 3
   E                 A                 E                 A
G|-----------------|-----------------|-----------------|-----------------|
D|-----------------|-------7---------|-----------------|-------7---------|
A|-------7---------|-0-4-5---0-4-5-7-|-------7---------|-0-4-5---0-4-5-7-|
E|-0-4-5---0-4-5-7-|-----------------|-0-4-5---0-4-5-7-|-----------------|

   F#                Bm                E                 A
G|-----------------|-----------------|-----------------|---------------|
D|-----------------|---------------0-|-----------------|---------------|
A|---------------1-|-2-222-222-224---|-----------------|---------------| (2x)
E|-2-222-222-224---|-----------------|-0-000-000-000-4-|-5--5--5--4--3-|

   F#                Bm                E                 A
G|-----------------|-----------------|-----------------|-----------------|
D|-----------------|-----------------|-----------------|-----------------|
A|-----------------|-2-2-2-2---------|-----------------|-----------------|
E|-2---------------|-----------------|-0--4--5--7------|-5-5-5-5---------|

G|-----------------|-----------------|-----------------|-----------------|
D|-----------------|-----------------|-----------------|-----------------|
A|----------5------|-4-4-4-4---------|-7-7-5-5-4-4-2-2-|-----------------|
E|-4--5--7---------|-----------------|-----------------|-5-5-5-5---------|


Introdução:[Intro]

[Verso 1]
?que pampa é essa que eu recebo agora
com a missão de cultivar raízes
se dessa pampa que me fala a stória
não me deixaram nem sequer matizes?
passam às mãos da minha geração
heranças feitas de fortunas rotas
campos desertos que não geram pão
onde a ganância anda de rédeas soltas
se for preciso, eu volto a ser caudilho
por essa pampa que ficou pra trás
porque eu não quero deixar pro meu filho
a pampa pobre que herdei de meu pai

[Verso 2]
herdei um campo onde o patrão é rei
tendo poderes sobre o pão e as águas
onde esquecido vive o peão sem leis
de pés descalços cabresteando mágoas
o que hoje eu herdo da minha grei chirua
é um desafio que a minha idade afronta
pois me deixaram com a guaiaca nua
para pagar uma porção de contas
se for preciso, eu volto a ser caudilho
por essa pampa que ficou pra trás
porque eu não quero deixar pro meu filho
a pampa pobre que herdei de meu pai

(Repete Verso 2)

(Solo)

[Verso 3]
se for preciso, eu volto a ser caudilho
por essa pampa que ficou pra trás
porque eu não quero deixar pro meu filho
a pampa pobre que herdei de meu pai
porque eu não quero deixar pro meu filho
a pampa pobre que herdei de meu pai
porque eu não quero deixar pro meu filho
a pampa pobre que herdei de meu pai
a pampa pobre que herdei de meu pai


Enviada por Sem inscrição
Nº de acordes: