Engenheiros do Hawaii

Era Um Garoto Que Como Eu

Engenheiros do Hawaii

3.769 exibições
  • Violão
  • Guitarra
  • Teclado
  • Cavaquinho
  • Contra-baixo
  • Bateria
  • Gaita
  • Guitar Pro
Era um garoto 

Introdução                                                   Era um garoto...
G|-----------------------------|------------------------------------------------------|
D|-----------------------------|------------------------------------------------------|  
A|-----------------------------|------------------------------------------------------| 
E|-----0--0--7--5--7-----------|-------0--7--5--7-------------------------------------|

( verso 2 ) Não era belo...
G|-----------------------------------------------------|      |------------------------|  
D|-----------------------------------------------------|      |------------------------|  
A|-----------------------------------------------------| (2x) | -----------------------|  
E|---0---0-0---7---7-7---5---5-5---7---7-7-5-----------|      |-------7\3--------------|

Cantava viva...
G|---------------------------------------|--------------------------------------------|   
D|---------------------------------------|--------------------------------------------|
A|---------------------------------------|--------------------------------------------| 
E|--0-(8x)-5-(8x)---7--5--4----7-5-4-----|------0-(8x)-5-(8x)---5--4--3--2---7--7-5-4-|


Stop,com Rolling Stones...                     ...mandado foi ao Vietnã...
G|---------------------|       |-------------------------------------------------------|  
D|---------------------|       |-------------------------------------------------------| 
A|---------------------|  (2x) |-------------------------------------------------------|
E|--0--3--5--5--7------|       |-----5--4--2--0------5--4--5--6--777(...)--------------|

tata-tatata , tata-tatata ...
G|------------------------------------------------------------------------------------|  
D|------------------------------------------------------------------------------------| 
A|---------------------------------------7------------7----------9------------9-------| 
E|----0---0-0-7--0---0-0-7--5---5-5------5---5-5----7---7-7----7---7-7----------------|





G|----------------------|--------------------------------------------------------------|  
D|----------------------|--------------------------------------------------------------| 
A|----------------------|--------------------------------------------------------------|
E|--0-0-0--7-7-7-5------|--------------------------------------------------------------|

(Repete verso 2  duas  vezes )

Não tem amigos , não vê garotas...
G|---------------------------------------|--------------------------------------------|  
D|---------------------------------------|--------------------------------------------|  
A|---------------------------------------|--------------------------------------------|  
E|-----0-(8x)-5-(8x)---7--5--4----7-5-4--|----------0-(8x)-5-(8x)--7-5-4-2---7--7-5-4-|

Stop,com Rolling Stones...                     ...no peito um coração não há...
G|-----------------------|       |--------------------------------------------------|  
D|-----------------------|       |--------------------------------------------------| 
A|-----------------------|  (2x) |--------------------------------------------------| 
E|--0--3--5--5--7--(5)---|       |-----5--4--2--0------5--4--5--6--777(...)---------|

G|----------------------------------------------------------------------|  
D|--------9----8--9--10----9----10--9--8~~------------------------------|   
A|----8-----------------------------------------------------------------| 
E|----------------------------------------------------------------------|

tatatatata... ( verso 3 )
G|----------------------------------------------------------------------------| 
D|----------------------------------------------------------------------------| 
A|----------------------------------------------------------------------------|  
E|----0-0-0-0--7b5--0-0-0--7b6----5-5-5--7b6--5-5-5--7b6----------------------|

G|------------------------------------------------------------------------------|  
D|------------------------------------------------------------------------------| 
A|------------------------------------------------------------------------------| 
E|------7-7-7--5b6--7-7-7--7b6---0-0-0--7-7-7-----------------------------------|

Solo...
Final do solo o baixo acompanha...
G|---12--12--14--12--11--9---------12------------------------------------------|
D|--------------------------------12--------14--14--12--10--9------------------|
A|-------------------------------------------------------------------11--9-----|
E|-----------------------------------------------------------------------------|

Repete verso 3 ...

Final: B – E - B


Enviada por Sem inscrição
Nº de acordes: