Engenheiros do Hawaii

A Revolta Dos Dândis I

Engenheiros do Hawaii

944 exibições
Intro:


G|---------|
D|---------|
A|---------|
E|-3-------|


  E                   C#m         B
G|--------------------|-------4-6--------2-4-|
D|---------2--4--2----|----6----------4------|
A|-------2----------2-|-4----------2---------|
E|-0--4---------------|----------------------| (2x)


Verso:


  E                   C#m       B
G|----1-----4--1------|----------------------|
D|-2-----2--------2---|----2--------1--------|
A|--------------------|-4-----4--2-----2-----|
E|--------------------|----------------------|


  E                   C#m       B              A
G|----1-----4--1------|----------------------|----------------|
D|-2-----2--------2---|----2--------1--------|----------------|
A|--------------------|-4-----4--2-----2-----|--0-------------|
E|--------------------|----------------------|----------------|


  E                   C#m         B
G|--------------------|-------4-6--------2-4-|
D|---------2--4--2----|----6----------4------|
A|-------2----------2-|-4----------2---------|
E|-0--4---------------|----------------------|


  E                   C#m         B            A
G|--------------------|-------4-6--------2-4-|----------------|
D|---------2--4--2----|----6----------4------|----------------|
A|-------2----------2-|-4----------2---------|--0-------------|
E|-0--4---------------|----------------------|----------------|


Refrão:


  E                        A
G|------------------------|------------------|
D|-------0-2--------0-2---|------------------|
A|----2----------2--------|-0----------------|
E|-0----------0-----------|------------------|


  E
G|------------------------|
D|-------0-2--------0-2---|
A|----2----------2--------|
E|-0----------0-----------|


  B                   D
G|-------------------|------------------|
D|----4--2-----4--2--|----7--5-----7--5-|
A|-2--------2--------|-5--------5-------|
E|-------------------|------------------|


  B                   D                   A
G|-------------------|------------------|-------------|
D|----4--2-----4--2--|----7--5-----7--5-|-------------|
A|-2--------2--------|-5--------5-------|--0----------|
E|-------------------|------------------|-------------|


  E                      A
G|----------------------|-----------------------|
D|-------0-2-----2--0---|-----------------------|
A|----2---------------2-|-0---------0--2--0-----|
E|-0----------0---------|-----0--4-----------4--|


G|----------------------|------------------|------------------|
D|-----------2--0-------|----4--2-----4--2-|----7--5-----7--5-|
A|----2--2---------4--3-|-2--------2-------|-5--------5-------|
E|-0-------4------------|------------------|------------------|


G|------------------|------------------|
D|----4--2-----4--2-|------------------|
A|-2--------2-------|-5--4--2--2-------|
E|------------------|-------------3--2-|


Verso 2:


  E                   C#m         B
G|--------------------|-------4-6--------2-4-|
D|---------2--4--2----|----6----------4------|
A|-------2----------2-|-4----------2---------|
E|-0--4---------------|----------------------|


  E                   C#m         B            A
G|--------------------|-------4-6--------2-4-|--------2--2h4-2-------|
D|---------2--4--2----|----6----------4------|------2----------5-4---|
A|-------2----------2-|-4----------2---------|--0--------------------|
E|-0--4---------------|----------------------|-----------------------|


  E                   C#m         B
G|--------------------|-------4-6--------2-4-|
D|---------2--4--2----|----6----------4------|
A|-------2----------2-|-4----------2---------|
E|-0--4---------------|----------------------|


  E                   C#m         B            A
G|--------------------|-------4-6--------2-4-|-----------------------|
D|---------2--4--2----|----6----------4------|-----------------------|
A|-------2----------2-|-4----------2---------|--0--------------------|
E|-0--4---------------|----------------------|-----------------------|



(Refrão)


Verso 3:


  E                    C#m         B
G|---------------------|---------------------|
D|---------------------|---------------------|
A|-7--7-7-7---7--7-7-7-|-4--4-4-4---2--2-2-2-|
E|---------------------|---------------------|


  E                    C#m         B          A
G|---------------------|---------------------|-------------|
D|---------------------|---------------------|-------------|
A|-7--7-7-7---7--7-7-7-|-4--4-4-4---2--2-2-2-|-0-----------|
E|---------------------|---------------------|-------------|


  E                   C#m         B
G|--------------------|-------4-6--------2-4-|
D|---------2--4--2----|----6----------4------|
A|-------2----------2-|-4----------2---------|
E|-0--4---------------|----------------------|


  E                   C#m         B            A
G|--------------------|-------4-6--------2-4-|-----------------------|
D|---------2--4--2----|----6----------4------|-----------------------|
A|-------2----------2-|-4----------2---------|--0--------------------|
E|-0--4---------------|----------------------|-----------------------|


(Refrão)


Final:


  E                C#m
G|-----------------|------------6-4------|
D|-1-1--1-1--2--1--|----------------6-4--|
A|-2-2--2-2--2--2--|-4-----4-4-----------|
E|-----------------|----4----------------| (3x)


  E                C#m
G|-----------------|-----------------------|
D|-1-1--1-1--2--1--|-----------------------|
A|-2-2--2-2--2--2--|-4-----4-4--4--6--7----|
E|-----------------|----4----------------0-|



E é isso ae, vc ouvindo a música fica melhor p/ tirar
qualquer dúvidas e/ou reclamações
felipewildberger@hotmail.com


Enviada por Sem inscrição
Nº de acordes: