Intro. (guitarra e baixo)
g-----------------------------------------------------------------------------|
d-----------------------------------------------------------------------------|
a------------5-3-2-0-------------------------------------5-3-2-0--------------|
e--5-1-1-3-3---------3-5-1-1-3-3-3-3-3-3-3-3-3-5-1-1-3-3---------3-5-1-1-3-3--|

Verso
"Não vejo nada...."
g-----------------------------------------------------------------------------|
d----------------------------2-3----------------------------------------------|
a--------------------------5-----3-2-0-----------------------5----------------|
e--5---3-5---3-5---3-5-----------------3-5---3-5---3-5---3-5---1--3-3-3-3-3-3-|

Refrão

g-----------------------------------------------------------------------------|
d-----------------------------------------------------------------------------|
a-3--3-3-3-5---------------------1-1-2-2-3-3-3-3-5---------5-5-5-5-0-1-1-2-2-3|
e------------3--3-3-3-0-1--1-1-1-------------------3-3-3-3--------------------|

g-----------------------------------------------------------------------------|
d-----------------------------------------------------------------------------|
a-3--3-3-3-5---------------------1-1-2-2-3-3-3-3-5---------5-5-5-5-1-1--------|
e------------3--3-3-3-0-1--1-1-1-------------------3-3-3-3--------------------|

g-----------------------------------------------------------------------------|
d-0-2-2-0-2-2-0-2-2-2-0-2-2-0-2-2-0-2-2-2-------------------------------------|
a-----------------------------------------------------------------------------|
e-----------------------------------------------------------------------------|

Repete intro. e...

g-----------------------------------------------------------------------------|
d-----------------------------------------------------------------------------|
a-0-2-3-----------------------------------------------------------------------|
e-------1-1-1-1-2-3--5-3------------------------------------------------------|

Verso
"Tu me encontrastes.."(nessa parte, na versão ao vivo, se toca mais leve) 
g-----------------------------------------------------------------------------|
d---------------------------------------------3-------------------------------|
a-------------------------------------------5---------------------------------|
e---3-5--3-5--3-5--3-5--3-5--3-5--3-5--3-5--------3-3-3-3-3-3-3---------------|

Refrão(e parte final)

g-----------------------------------------------------------------------------|
d-----------------------------------------------------------------------------|
a-3--3-3-3-5---------------------1-1-2-2-3-3-3-3-5---------5-5-5-5-0-1-1-2-2-3|
e------------3--3-3-3-0-1--1-1-1-------------------3-3-3-3--------------------|

g-----------------------------------------------------------------------------|
d-----------------------------------------------------------------------------|
a-3--3-3-3-5---------------------1-1-2-2-3-3-3-3-5---------5-5-5-5-0-1-1-2-2--|
e------------3--3-3-3-0-1--1-1-1-------------------3-3-3-3--------------------|

parte com slap
g---5---5----------------------3---4---5---5--------------7---7---------------|
d-----------5---5-----3---3---------------------5---5-------------------------|
a-3---3----------------------1---2---3---3--------------5---5-----------------|
e---------3---3----1----1---------------------3----3--------------------------|


g-----------------------------------------------------------------------------|
d-------------------------5-5-5-5--------------------------5-5-5-5------------|
a-1-1-2-2-3-3-3-3-3-3-3-3------------------3-3-3-3-3-3-3-3--------------------|
e---------------------------------1-1-1-1-------------------------------------|


g-----------------------------------------------------------------------------|
d-3-2-0-----2-3-2-0-----2-----------------------------------------------------|
a-------3-5---------3-5---3-3-3-3-3-3-3-3-3-3-3-------------------------------|
e-----------------------------------------------------------------------------|

Sugetões ou criticas ou qualquer outra coisa: undertaker@telenete.com.br
Christhiano Henrique Menezes


Enviada por Sem inscrição
Nº de acordes: