Obs: A música é tocada num baixo de 5 cordas, no caso possuo um baixo
de 4 cordas e adaptei a tablatura para tal.
Bom divertimento!

Intro:
Antes de começar a cantar o baixo fica um bom tempo com distorção:


G|-----------------------------------------------------------------
D|-----------------------------------------------------------------
A|-----------------------------------------------------------------
E|--3-3-3-3-3-3-3-3-3-3-3-3-3-3-3-3-3-3-3-3-3-3-3-3-3-3-3-3-3-3-3-3
corrida pra vender cigarro...
cigarro pra vender remédio...

3x (o 5 se faz na terceira vez)
G|-----------------------------------------------------------------
D|-----------------------------------------------------------------
A|-----------------------------------------------------------------
E|--3-3-3-3-3-3-3-3--2-2-2-2-2-2-2-2-3-3-3-3-3-3-3-3--2-2-2-2-2-2^5

corrida pra vender os carros...
3x (o 5 se faz na terceira vez)
G|-----------------------------------------------------------------
D|-----------------------------------------------------------------
A|-----------------------------------------------------------------
E|--3-3-3-3-3-3-3-3--2-2-2-2-2-2-2-2-3-3-3-3-3-3-3-3--2-2-2-2-2-2^5

e professar a fé de quem patrocinaaaaaaaaaaa.........

G|-----------------------------------------------------------------
D|------------------7----------------------------------------------
A|----------------7------------------------------------------------
E|--3^2^5-----5-8--------------------------------------------------

Aqui acaba a distorção!

eles querem te vender, eles querem te comprar
2x
G|-----------------------------------------------------------
D|-----------------------------------------------------------
A|-----3^5^7------5-----5------------------------------------
E|--0----------------5---------------------------------------

?quem são eles...

4x
G|---------------------------------------5^7-5------
D|---------------------------------------------7-5-- (ao terminar o ultimo 5 voltar para 0)
A|--0-0-0-0-0-2-3-3-3-3---------5-5-5-5-------------
E|----------------------3-3-3-3---------------------

corrida contra o relógio...
3x (o 5 se faz na terceira vez)
G|-----------------------------------------------------------------
D|-----------------------------------------------------------------
A|-----------------------------------------------------------------
E|--3-3-3-3-3-3-3-3--2-2-2-2-2-2-2-2-3-3-3-3-3-3-3-3--2-2-2-2-2-2^5

satisfação garantida...
2x
G|------------------------
D|------------------------
A|--2-2---2-2--0-0--5-0-7-
E|------------------------

eles ganham a corrida antes mesmo da largada

G|-----------------------------------------------------------------
D|------------------7----------------------------------------------
A|----------------7------------------------------------------------
E|--3^2^5-----5-8--------------------------------------------------

eles querem te vender, eles querem te comprar

2x
G|----------------------------------------------------------
D|----------------------------------------------------------
A|-----3^5^7------5-----5-----------------------------------
E|--0----------------5--------------------------------------

?quem são eles...

4x
G|---------------------------------------5^7-5------
D|---------------------------------------------7-5-- (ao terminar o ultimo 5 voltar para 0)
A|--0-0-0-0-0-2-3-3-3-3---------5-5-5-5-------------
E|----------------------3-3-3-3---------------------

vender...comprar...vedar os olhos...
2x
G|----------------------------------------------------
D|----------------------------------------------------
A|--5-5-5-7-8-5----7-----7-----7-----7----------------
E|--------------5-5---5-5---5-5---5-5-----------------

?quem são eles...

3x
G|---------------------------------------5^7-5------
D|---------------------------------------------7-5-- (ao terminar o ultimo 5 voltar para 0)
A|--0-0-0-0-0-2-3-3-3-3---------5-5-5-5-------------
E|----------------------3-3-3-3---------------------


G|---------------------------------------
D|---------------------------------------
A|--0-0-0-0-0-2-3-3-3-3------------------
E|----------------------3-3-3-3--0-------


Enviada por Sem inscrição
Nº de acordes: