Djavan

Te Devoro

Djavan

5.813 exibições
  • Violão
  • Guitarra
  • Teclado
  • Cavaquinho
  • Contra-baixo
  • Bateria
  • Gaita
  • Guitar Pro
INTRO:

G---------------------------------------
D---------------------------------------
A---5--555--5-2---222--2-------1--------    2x
E-----------------------3-333-3--3-333-3

Verso:

G---------------------------------------
D---------------------------------------
A---5--555--5-2---222--2-------1--------    
E-----------------------3-333-3--3-333-3

G---------------------------------------
D---------------------------------------
A---5--555--5-2---222--2----------------    
E-----------------------3-333-3--0----5-

G---------------------------------------
D---------------------------------------
A---5--555--5-2---222--2-------1--------   2X 
E-----------------------3-333-3--3-333-3

é um milagre:

G-----------
D-----------
A-----------
E---0----5-4


Refrão:
G---------------------
D---------------------
A---2-----------------         3X
E-------5-555-5-3--333

e te deu....
G----------------
D----------------
A----------------
E--2-222-2-5-555-


o resto é igual ate o final!!!!!!!!


Enviada por Sem inscrição
Nº de acordes: