Creedence Clearwater Revival

Have You Ever Seen The Rain?

Creedence Clearwater Revival

4.949 exibições
Intro:
G-------------------------------2-0-----0----------5-4-2-0-0--
D---------0-2-3-3-3-2-0-------------2-2-----------------------
A-0-0-0-0---------------3-3-3-3------------3-3-3-3------------
E-------------------------------------------------------------

Verse: 
G--------------------------------------------------7---------7--------------
D--------5----------5----------5--------2-3-5--5-5----5--5-5----------------
A-3--3-3-----3--3-3-----3--3-3-----3--3-------------------------3--3-3--3-3-
E---------------------------------------------------------------------------

G--------------------------------------------------7---------7--------------
D--------5----------5----------5--------2-3-5--5-5----5--5-5-----------0-2--
A-3--3-3-----3--3-3-----3--3-3-----3--3-------------------------3--3-3------
E---------------------------------------------------------------------------

Refrao:
G---------------------5----5-4----4-2----2-0----0--
D-3--3-3--3-5--5-5--5------------------------------
A--------------------------------------------------
E--------------------------------------------------

G---------------------5----5-4----4-2----2-0----0--
D-3--3-3--3-5--5-5--5------------------------------
A--------------------------------------------------
E--------------------------------------------------

G------------------------
D-3--3-3--3-5--5-5--5----
A---------------------3--
E------------------------


Enviada por Sem inscrição
Nº de acordes: