CPM 22

Um Minuto Para O Fim Do Mundo

CPM 22

2.882 exibições
Intro 6x: No começo é o baixo sozinho fazendo isso:
G|--------------------------------------------------|
D|-2-2-2-2-2-2-2-2--2-2-2-2-2-2-2-2-----------------|
A|-0-0-0-0-0-0-0-0--3-3-3-3-3-3-3-3-----------------|
E|--------------------------------------------------|

G|--------------------------------------------------|
D|-12-12-12-12-12-12-12-12-10-10-10-10-10-10-10-10--|
A|-10-10-10-10-10-10-10-10-8--8--8--8--8--8--8--8---|
E|--------------------------------------------------|


Verso 3x: Entra junto com a batera. . .
G|--------------------------------------------------|
D|--------------------------------------------------|
A|-0-0-0-0-0-0-0-0-0--------------------------------|
E|--------------------1-1-1-1-1-1-1-1-1-------------|

G|--------------------------------------------------|
D|--------------------------------------------------|
A|-3-3-3-3-3-3-3-3-3--------------------------------|
E|--------------------3-3-3-3-3-3-3-3-3-------------|


Refrão 1x:
G|--------------------------------------------------|
D|--------------------------------------------------|
A|-3-3-3-3-3-3-3-3----------------------------------|
E|-------------------3-3-3-3---1-1-1-1--------------|

G|--------------------------------------------------|
D|--------------------------------------------------|
A|-3-3-3-3-3-3-3-3----------------------------------|
E|-------------------3-3-3-3----15-15-15-15---------|

G|----------------------------------------------------------|
D|----------------------------------------------------------|
A|-3-3-3-3-3-3-3-3------------------------------------------|
E|-------------------3-3-3-3---1-1-1-1-1-1-1--3-3-3-3-3-3-3-|


Base do Solo 2x: Ela serve tanto pro solo do começo quanto o do fim . . .
G|--------------------------------------------------|
D|--------------------------------------------------|
A|-3-3-3-3-3-3-3-3-3--------------------------------|
E|--------------------3-3-3-3-3-3-3-3-3-------------|

G|--------------------------------------------------|
D|--------------------------------------------------|
A|-5-5-5-5-5-5-5-5-5--------------------------------|
E|--------------------1-1-1-1-1-1-1-1-1-------------|

Verso 3x:

Refrão 2x

Base do Solo 2x:
G|--------------------------------------------------|
D|--------------------------------------------------|
A|-3-3-3-3-3-3-3-3-3--------------------------------|
E|--------------------3-3-3-3-3-3-3-3-3-------------|

G|--------------------------------------------------|
D|--------------------------------------------------|
A|-5-5-5-5-5-5-5-5-5--------------------------------| Na Segunda Vez Ir da Casa 5 Direto Pra Parte debaixo
E|--------------------1-1-1-1-1-1-1-1-1-------------| Ou começar tocando a casa 1
                                                      da parte debaixo n dessa...

G|------------------------------------------------------------|
D|------------------------------------------------------------| Essa é a parte do "Eu A|---------------------------------------------------------3--| sei que isso é o fim... 
E|-1-1-1-1-1-1-1-1-1-1-1-1-1-1-1-1-1-1-1-1-1-1-1-1-1-1-1------| Eu sei que isso é o fim..."


Enviada por Sem inscrição
Nº de acordes: