CPM 22

Não Sei Viver Sem Ter Você

CPM 22

2.447 exibições
Até hoje ninguém teve a moral de deixar essa musica bem formatada...
um puta som desse e a gente tem que consultar duas versões, fala sério !!!!
Fiz algumas correções de variação e tempo, e agora ela está um pouco mais
parecida com a original... deu um puta trampo fazer, mas valeu a pena...
ta grande mas tá completa !!! Tá com os tempos certinhos e tudo
mais, vale a ler a tablatura escutando a musica, vc pega ela rapidinho !!!


No começo devemos esperar, a parte inicial é só da guitarra e do vocal,
até a parte do "chegou a hora de recomeçar..."


"Ter cada coisa em seu lugar..." (0.16")

G -------------------------
D -------------------5-----
A ------3-5----5--7-----3--
E --0---------------------- (2x)


"Te ligar de madrugada sem saber o que dizer..." (0.36")

G --------------------------------------------------------
D --------------------------------------------------------
A --22222222-33333333----------55555555-22222222-333333-5-
E --------------------33333333----------------------------


"Que não vai voltar..." (0.50")

G --------------------------------------------------
D ------------------------------22------------------
A ----------55555555-3333333333----3333333333-5-3---
E -33333333---------------------------------------5- (2x)


"Não sei viver sem ter você..." (Refrão - 1.10") 

G ------------------------------------------------
D ------------------------------22----------------
A ----------55555555-3333333333----3333333333-55--
E -33333333--------------------------------------- (2x)


"É difícil de aceitar..." (1.30")

G -------------------------------------------------------
D -------------------------------------------------------
A -7777777777/10101010101010101010\5555555555\3333333333-
E ------------------------------------------------------- (2x)


"Chegou a hora de recomeçar..." (1.50")

G -----------
D -----------
A ------3----
E -5---------


"Acreditar..." (1.55")

G -------------------------
D -------------------5-----
A ------3-5----5--7-----3--
E --0---------------------- (2x)


"Te ligar de madrugada sem saber o que dizer..." (2.14")

G --------------------------------------------------------
D --------------------------------------------------------
A --22222222-33333333----------55555555-22222222-333333-5-
E --------------------33333333----------------------------


Agora tem a pausa do telefone, dois toques (2.28")


"Que não vai voltar..." (2.31")

G --------------------------------------------------
D ------------------------------22------------------
A ----------55555555-3333333333----3333333333-5-3---
E -33333333---------------------------------------5- (2x)


"Não sei viver sem ter você..." (Refrão - 2.51") 

G ------------------------------------------------
D ------------------------------22----------------
A ----------55555555-3333333333----3333333333-55--
E -33333333--------------------------------------- (2x)


"Preciso reaprender a viver..." (3.10") 

G ------------------------------------------------
D ------------------------------22----------------
A ----------55555555-3333333333----3333333333-55--
E -33333333--------------------------------------- 


G ------------------------------------------------------
D ------------------------------22--------------------3-
A ----------55555555-3333333333----3333333333---55--5---
E -33333333---------------------------------------------


No final ela tem essa variaçãozinha, por isso eu desmembrei. 

Espero ter ajudado !!!


Enviada por Sem inscrição
Nº de acordes: