CPM 22

Dias Atrás

CPM 22

2.919 exibições
Tom:B


Intro:
G:--------------------------------------------|
D:--------------------------------------------|
A:-2222-4----------------------1--22...-------|
E:-----------2222--0000--2222-3---------------|
                        
Essa eh a base da intro, a batida vc pega cum a musica.

Base1:
G:-------------------|
D:-------------------|
A:-------------------|
E:-0000--4444--------|

nunca mais espero te encontrar...

Base2: 

G:-------------------|
D:-------------------|
A:-7777--------4-77..| 
E:-----4444-5-7------|

tantos dias sem entender...

Pre-Refrao: 

G:-------------------|
D:-------------------|
A:7777----------7-6-4| 
E:----4444-2222------|

que não vai voltar


Refrão:
G:--------------------------------------------|
D:--------------------------------------------|
A:-2222-4----------------------1--22...-------|
E:-----------2222--0000--2222-3---------------|

Base1:
G:-------------------|
D:-------------------|
A:-------------------|
E:-0000--4444--------|

Tanto faz oque vai rolar...

Base2: 

G:-------------------|
D:-------------------|
A:-7777--------4-77..| 
E:-----4444-5-7------|

Sempre tento me esconder...

Pre-Refrao: 

G:-------------------|
D:-------------------|
A:7777----------7-6-4| 
E:----4444-2222------|

Acho que é melhor...

Refrão 1x

Base Solo:

G:-------------------|
D:-------------------|
A:-------------------|3 x 
E:--4444---0000------|

G:-------------------|
D:-------------------|
A:-------------------| 
E:--2222---0000------|

G:-------------------|
D:-------------------|
A:-------------------|3 x 
E:--4444---0000------|

G:-------------------|
D:-------------------|
A:-------------------| 
E:--2222---00--------|

Refrão 1x


G:--------------------------------------------|
D:--------------------------------------------|
A:--2222--4--------7777-6-5-4-9999------------|
E:------------2222----------------------------|


Enviada por Sem inscrição
Nº de acordes: