Charlie Brown Jr.

Escalas Tropicais

Charlie Brown Jr.

2.173 exibições
Essa música com a participação de Tadeu Patola
produtor da banda que nessa música faz voz e solo.

intro:
G-|-----------------------------------------------------|
D-|-----------------------------------------------------|
A-|-3-3--6-8---3-3--6-8~--3-3--6-8---1-1-1-1-1-1-1-1-|
E-|----------6-----------------------6------------------|

versos:
G-|-------------------------------------|
D-|-------------------------------------|
A-|-3-3-------3-3-----3-3-------3-3----|
E-|-----3-1-3-----3-5-----3-1-3-----3/-|

refrão/2x: ("Escalas Tropicais, belas e naturais...")
G-|-------------------------|
D-|-------------------------|
A-|-------------------------|
E-|-3-33-33-3-3--2-2-22-2--|

final da música:
G-|----|
D-|----|
A-|-6/-|
E-|----|

interlude: ("Fala chorão...")
sem baixo

solo: refrão

depois toque o refrão/4x + final


Enviada por Sem inscrição
Nº de acordes: