Cazuza

O Tempo Não Pára

Cazuza

2.673 exibições
inicio fica assim ate o refrão:

-----4-----4-----4-----4---
---------5----6------7------
-----------------3------3---
----------------------------

{{Refrão}}

-----------7---------7--------7
-----------------8---------8---
-4------5-6-------------6.6----
--------------------------------


Enviada por Sem inscrição
Nº de acordes: