Catedral

Eu Amo Mais Você

Catedral

3.395 exibições
Tab feita por caverna (mbbass@mtv.com.br)


Intro
|------------------------------|
|------------------------------|
|--3--3-3--3-3--3--0-3/7-8-7-9-| X2
|------------------------------|


Riff1
"Depois dessa ventania o temporal.."
|----------------------------------------------------------------|
|----------------------------------------------------------------|
|--3--3-3--3-3--3--0-3/7-8-7-9---------------------7-8-7-9-------|
|-------------------------------3--3-3--3--3-3--3----------------|


"Qual é a tua... o teu segredo..."

|-----------------------------------------------------------------------------------------|
|-----------------------------------------------------------------------------------------|
|---5--5-5--5--5-5--5--8--8-8--8--8-8--8-8--3--3-3--3--3-3--3-----------------------------|
|-------------------------------------------------------------3--3-3--3--3-3--3-----------|

Refrão(Riff2)

|---------------------------------------------------------------------------------------|
|---------------------------------------------------------------------------------------|
|--5--5-5--5-5-5--5-5-5-5---8--8-8--8--8-8--8-8-8--8--3-33-0-3/7-8-7-9-3-33-0-3/7-8-7-9-|
|---------------------------------------------------------------------------------------|


Solo: primeiro o riff1 e depois o riff2


Enviada por Sem inscrição
Nº de acordes: