Cássia Eller

O Segundo Sol

Cássia Eller

5.234 exibições
Cássia Eller	

O Segundo Sol-Acústico MTV

Intro

G- |-------|
D- |-------|
A- |-------|
E- |6-5-3-3|

Riff 1

G-|------------------------|
D-|------------------------|
A-|-----5-5-5-5-------3-3-3|
E-|3-3-3-------1-1-1-1-----|
  Quando o segundo sol chegar...

Intro e riff 1 (2x)

Riff 2 (2x)

G-|----------------------------------|
D-|-------------------5-3-3-3--------|
A-|-------------------5------3/5-----|
E-|3-3-3-1/3-3-3----------------3-3-3|
  Não diga que não me surpreendi...

Riff 3

G-|------------------------|
D-|------------------------|
A-|1/3---3-5-5-5-5-3-3-----|
E-|---1---------------3-3-3|
      Mas você pode ter certeza...

Riff 4

G-|-----------------------------------|
D-|-----------------------------------|
A-|---5-3-3-3-1/3-3-3----------5-3-3-3|
E-|1-0----------------3-3-3-1-0-------|
   Em sua nova casa que habita...

Repete tudo(intro,riff 1...)

G-|----------------------------------------------|
D-|----------------------------------------------|
A-|-----3-3-3-----3-3-3-----3-3-3---------5-5---3|
E-|1-1-1-----1-1-1-----1-1-1-----1-1-1-1-0---1-1-|
   Explicação...não tem explicação...  Explica......ção
   Não tem,não tem


Enviada por Sem inscrição
Nº de acordes: