Capital Inicial

Eu Vou Estar

Capital Inicial

3.258 exibições
  • Violão
  • Guitarra
  • Teclado
  • Cavaquinho
  • Contra-baixo
  • Bateria
  • Gaita
  • Guitar Pro
tom:G
des da introducão eh assim

sololinho de violão depois entra o baixo
1º parte

"eu não vou pro..." 


G-------------------------------|
D-------------------------------|
A------2------------------------|
E---33---5555-------------------|


eu vou estar em tudo que você ve..."muda"
G--------------------|
D--------------------|
A-----2------2222----|
E--33---5555---------|


"nos seus livros ..."
G-------------------------------|
D-------------------------------|
A--------3--------3----33-------|
E--33-55--55-33-55--55----1111--|

"eu vou estar"

igual a 1º parte

solo de violão denovo

"em baixo da cama..." é assim
G-----------------------------------------|
D-----------------------------------------|
A--2222-0000-2222-0000-2222-0000-2222-0000-22222222-|
E-----------------------------------------|
 

"nos seus..."

eu vou estar.... da da da ..."a mesma sequencia que o refrão"

 valew galera que curte capital, espero que tenha dado tudo blz p/ vcs ...(marquinhos da banda ponto final)


Enviada por Sem inscrição
Nº de acordes: