Bon Jovi

Misunderstood

Bon Jovi

2.157 exibições
  • Violão
  • Guitarra
  • Teclado
  • Cavaquinho
  • Contra-baixo
  • Bateria
  • Gaita
  • Guitar Pro
(00:00) Verse
|-------------------------------------|
|-------------------------------------|
|-------------------------------------|
|-3----------3-4-2-----0-1-2-0--------|
   Should I?          Could I?

|-----------------------------------------------------|
|-----------------------------------------------------|
|---------------------6-7---5----------------4-5-3--3-|
|-----------------------------------------------------|
Have said the wrong things right a thousand times

|---------------------------------------------|
|---------------------------------------------|
|-----3----4-----2--2---2---0---1--2---0--0---|
|---------------------------------------------|
If I could just rewind, I see it in my mind

|---------------------------------------------|
|---------------------------------------------|
|----------------------0---------------0---0--|
|---------------------------------------------|
If I could turn back time, you'd still be mine

|---------------------------------|
|---------------------------------|
|---------------------------------|
|-3----------3-4-2--2--0-1-2-0--0-|
   You cried,           I died

|-----------------------------------------------------|
|-----------------------------------------------------|
|----------6----7-----5--5-------------------4-5-3--3-|
|-----------------------------------------------------|
I should have shut my mouth, things headed south

|-----------------------------------------------------|
|-----------------------------------------------------|
|--------------3--4----------2--2-----0---1--2---0--0-|
|-----------------------------------------------------|
As the words slipped off my tongue, they sounded dumb

|------------------------------------------------------|
|------------------------------------------------------|
|-----------0------------0----------------0---0---0----|
|------------------------------------------------------|
If this old heart could talk, it'd say you're the one


(00:35) Pre Chorus
|--------------------------------------------------|
|--------------------------------------------------|
|-0--0--0--0--0--0--0--0---3----3----3----3----3---|
|--------------------------------------------------|
    I'm wasting time        when I think about it

(00:41) Chorus
|--------------------------------------------|
|--------------------------------------------|
|------------3---3---3---3---3---3-----------|
|-0-0-0-0-0---------------------------3--3---|
  I           should have drove all   night,

|----------------------------------|
|----------------------------------|
|----------------------------------|
|--3---------3---------3----2--2---|
  I would have run all the lights

|-----------------------|
|-----------------------|
|-----------------------|
|--2------2------2------|
  I was misunderstood

|-------------------------------------|
|-------------------------------------|
|------------3---3---3---3---3---3----|
|-0-0-0-0-0---------------------------| 
   I          stumbled like my words, 

|--------------------------------------|
|--------------------------------------|
|-----------------------5--5--5--5--5--|
|--3---3---3---3---3-------------------|
     Did the best I   could

|--------------------------------------|
|--------------------------------------|
|--3--3--3--3--3--3--3--3--3--3---0~---|
|--------------------------------------|
                                 misunderstood


(01:05)
|---------------------------------|
|---------------------------------|
|---------------------------------|
|-3----------3-4-2--2--0-1-2-0--0-|
    Could I?            Should I?

|-------------------------------------------------------|
|-------------------------------------------------------|
|----------6----7-----5--5---------------------4-5-3--3-|
|-------------------------------------------------------|
  Apologize for     sleeping on the couch that night

|-----------------------------------------------------|
|-----------------------------------------------------|
|--------------3--4----------2--2-----0---1--2---0--0-|
|-----------------------------------------------------|
   Staying out too late with all my    friends

|----------------------------------------------|
|----------------------------------------------|
|---0-------0------------0----------0---0--0---|
|----------------------------------------------|
   You found me passed out in the yard again

|---------------------------------|
|---------------------------------|
|---------------------------------|
|-3----------3-4-2--2--0-1-2-0--0-|
   You cried,           I tried

|-----------------------------------|
|-----------------------------------|
|--------------6----7-----5--5----5-|
|-----0-----------------------------|
To stretch the truth, but didn't lie

(01:31) Pre Chorus
|--------------------------------------------------|
|--------------------------------------------------|
|-0--0--0--0--0--0--0--0---3----3----3----3----3---|
|--------------------------------------------------|
    It's not so bad         when I think about it

(00:41) Chorus
|--------------------------------------------|
|--------------------------------------------|
|------------3---3---3---3---3---3-----------|
|-0-0-0-0-0---------------------------3--3---|
  I           should have drove all   night,

|----------------------------------|
|----------------------------------|
|----------------------------------|
|--3---------3---------3----2--2---|
  I would have run all the lights

|-----------------------|
|-----------------------|
|-----------------------|
|--2------2------2------|
  I was misunderstood

|-------------------------------------|
|-------------------------------------|
|------------3---3---3---3---3---3----|
|-0-0-0-0-0---------------------------| 
   I          stumbled like my words, 

|--------------------------------------|
|--------------------------------------|
|-----------------------5--5--5--5--5--|
|--3---3---3---3---3-------------------|
     Did the best I   could

|----------------------------------------------------|
|----------------------------------------------------|
|--3--3--3--3--3--3--3--3--3--3-------0--0--0--0-----|
|----------------------------------------------------|
                                 misunderstood

|----------------------------|
|----------------------------|
|--0--0--0--0---3--3--3--3---|
|----------------------------|
   Intention's goo________d

(02:05) Solo
|---------------------------------------------------------------|
|---------------------------------------------------------------|
|------------------------------------------------5--5--5--5--5--|
|--3--3--3--3--3---2--2--2--2--2--0--0--0--0--0-----------------|

|---------------------------------------------------------------|
|---------------------------------------------------------------|
|--3--3--3--3--3---2--2--2--2--2--0--0--0--0--0--0--0--0--0--0--|
|---------------------------------------------------------------|

(02:23) Pre Chorus
|--------------------------------------------------|
|--------------------------------------------------|
|-0--0--0--0--0--0--0--0---3~~~~~~-----------------|
|--------------------------------------------------|
    It's you and I          when I think about it

(02:29) Chorus
|--------------------------------------------|
|--------------------------------------------|
|------------3---3---3---3---3---3-----------|
|-0-0-0-0-0---------------------------3--3---|
  I           should have drove all   night,

|----------------------------------|
|----------------------------------|
|----------------------------------|
|--3---------3---------3----2--2---|
  I would have run all the lights

|-----------------------|
|-----------------------|
|-----------------------|
|--2------2------2------|
  I was misunderstood

|-------------------------------------|
|-------------------------------------|
|------------3---3---3---3---3---3----|
|-0-0-0-0-0---------------------------| 
   I          stumbled like my words, 

|--------------------------------------|
|--------------------------------------|
|-----------------------5--5--5--5--5--|
|--3---3---3---3---3-------------------|
     Did the best I   could

|--------------------------------------------|
|--------------------------------------------|
|------------3---3---3---3---3---3-----------|
|-0-0-0-0-0---------------------------3--3---|
  I        'm   hanging outside your  door,

|-------------------------|
|-------------------------|
|-------------------------|
|--3----3-----3----2--2---|
   I've been here before

|----------------|
|----------------|
|----------------|
|--2---2----2----|
  misunderstood

|-------------------------------------|
|-------------------------------------|
|------------3---3---3---3---3---3----|
|-0-0-0-0-0---------------------------| 
   I          stumbled like my words, 

|--------------------------------------|
|--------------------------------------|
|-----------------------5--5--5--5--5--|
|--3---3---3---3---3-------------------|
     Did the best I   could

|----------------------------------------------------|
|----------------------------------------------------|
|--3--3--3--3--3--3--3--3--3--3-------0--0--0--0-----|
|----------------------------------------------------|
                                 misunderstood

|-----------------------|
|-----------------------|
|--0--0--0--0---3~~~~---|
|-----------------------|
   Intention's good


Enviada por Sem inscrição
Nº de acordes: