Bombay Bicycle Club

Always Like This

Bombay Bicycle Club

23 exibições
Intro:

G-----------------------------------------|
D------------11-11------------------------|
A---------11--------13-13-13--8-9-11------| x2
E---9-9-9---------------------------------|

Main riff:

G------10----------------------10----------------------|
D---------11-----11-13------------11-------------------|
A------------8/11--------13-13-------13--8-9-11--------|
E--9-9-------------------------------------------------|

Chorus:

G---------------------------------------|
D---------------------------------------|
A-----------6-6-6-6---------------------|
E---2-2-2-2---------6-6-6-6-6-6-6-6-----|

Variation at the end:

G------11p10--------------------13------------10---|
D-----------13p11------------------11----11-13-----|
A-----------------13p11---13-13-------13-----------|
E---9-9--------------------------------------------|


Enviada por Sem inscrição
Nº de acordes: