Bob Marley

No Woman No Cry

Bob Marley

2.860 exibições
The song begins like this:
G -------------------------
D -------------------------
A --0-2---3-2-1------------
E 3-----3-------3-2-1------

"No, no woman no cry"
G ------------
D ------------
A -2-1--------
E -----4-2----

Then:
G ---------------
D ---------------
A -2-1-----------
E -----3-3-2-1---


Enviada por Sem inscrição
Nº de acordes: