Bob Marley

Is This Love

Bob Marley

2.464 exibições
Introduçao

G |-------------------------|-----------6--------7--6-----7--6-----|-
D |-------4--7--4--------4--|-----4--7--------7--------7--------7--|-
A |-4--7-----------4--7-----|--5-----------------------------------|-
E |-------------------------|--------------------------------------|-

G |-------------------------|--------------------------------------|-
D |-------4--7--4--------4--|-----4--7-----------------------------|-
A |-4--7-----------4--7-----|--5-----------------------------------|-
E |-------------------------|-----------5--5--5--4--4--4--2--------|-


Verso

G |------------------------------------------------------------------
D |-------4--7--4--------4--------4--4--7--7--4----------------------
A |-4--7-----------4--7-----5--5-------------------------------------
E |----------------------------------------------5--5--5--4--4--4--2-


           2x                2x
G |-------------------|--------------------|-------------------------
D |-------------6--6--|--------------4--4--|-----------2-------------
A |-4--4--7--7--------|--2--2--5--5--------|--2--4--5----------------
E |-------------------|--------------------|--------------5--2-------


     4x                            4x      4x        4x       4x
G |-------|--------------------|--------|--------|--------|--------|-
D |-------|-----------2--------|--------|--------|--------|--------|-
A |-------|--2--4--5-----------|--------|--4--4--|--2--2--|--------|-
E |-2--2--|--------------5--2--|--2--2--|--------|--------|--2--2--|-


Virada
G |------------------------------
D |-2--2-------------------------
A |-------5--5--5--4--4--4--2----
E |------------------------------


Enviada por Sem inscrição
Nº de acordes: