Black Sabbath

Paranoid

Black Sabbath

2.242 exibições
Intro de Guitarra->2x
Intro de Baixo:
|----------|-----7-9-----7-9--| 
|----------|-7-9-----7-9------| -->1x
|--2/-7-7--|------------------| 
|----------|------------------| 

|----------|-----7-9-----7-9--| 
|----------|-7-9-----7-9------| 
|--7-7-7---|------------------| -->1x
|----------|------------------| 
 
verso 1: 
|----------------|-------------------| 
|----------------|-------------------| 
|--7-7-7-7-7-7-7-|-7-7-7-7-7-7-7-7-7-|
|----------------|-------------------|
                                                   ]-->2x
|-----------------|---------|
|-----------------|-5-------|
|-5-5-5-5-5-5-5-5-|---5-7---|
|-----------------|--------7|  
 
Finished with my woman 'cause she couldn't help me with my mind
People think I'm insane because I am frowning all the time
 
Ponte:
|-----------------|-----5-----7-|                           
|-----------------|---5-----7---|
|---7--7-7-7-7-7--|-3-----5-----| 
|-----------------|-------------| 
                                                   ]--->2x
|-----------------7h9|-----------------|
|--------------7h9---|-----------------|
|-7-7-7-7-7-7-7------|-7-7-7-7-7-7-7-7-|
|--------------------|-----------------|

verso:

|-----------------|-----7h9-----------| 
|-----------------|--7h9--------------| 
|-7-7-7-7-7-7-7-7-|---------5-5-5-5-5-|
|-----------------|-------------------|

                                                   ]-->2x
|------------------|
|-------5----------|
|-5-5-5----5--7----|
|----------------7-|

All day long I think of things but nothing seems to satisfy
Think I'll lose my mind if I don't find something to pacify

Refrão: 
|----9---9---9---9--|----7---7---7---7--| 
|------------------|--------------------| 
|-7---7---7---7----|--5---5---5---5-----| --->2x
|-------------------|-------------------| 
 
Can you help me? Occupy my brain?
Oh yeah


Verso:

|----------------|-------------------| 
|----------------|-------------------| 
|--7-7-7-7-7-7-7-|-7-7-7-7-7-7-7-7-7-|
|----------------|-------------------|

                                                   ]-->2x
|-----------------|---------|
|-----------------|-5-------|
|-5-5-5-5-5-5-5-5-|---5-7---|
|-----------------|--------7| 

|-----------------|-----7h9-----------| 
|-----------------|--7h9--------------| 
|-7-7-7-7-7-7-7-7-|---------5-5-5-5-5-|
|-----------------|-------------------|

                                                   ]-->2x
|------------------|
|-------5----------|
|-5-5-5----5--7----|
|----------------7-|

I need someone to show me the things in life that I can't find
I can't see the things that make true happiness, I must be blind

Solo:

|----------------|-------------------| 
|----------------|-------------------| 
|--7-7-7-7-7-7-7-|-7-7-7-7-7-7-7-7-7-|
|----------------|-------------------|

                                                   ]-->2x
|-----------------|---------|
|-----------------|-5-------|
|-5-5-5-5-5-5-5-5-|---5-7---|
|-----------------|--------7| 


|-----------------|-----7h9-----------| 
|-----------------|--7h9--------------| 
|-7-7-7-7-7-7-7-7-|---------5-5-5-5-5-|
|-----------------|-------------------|

                                                   ]-->2x
|------------------|
|-------5----------|
|-5-5-5----5--7----|
|----------------7-|

verso:

|----------------|-------------------| 
|----------------|-------------------| 
|--7-7-7-7-7-7-7-|-7-7-7-7-7-7-7-7-7-|
|----------------|-------------------|

                                                   ]-->42x
|-----------------|---------|
|-----------------|-5-------|
|-5-5-5-5-5-5-5-5-|---5-7---|
|-----------------|--------7|  

|----------------|-------------------| 
|----------------|-------------------| 
|--7-7-7-7-7-7-7-|-7-7-7-7-7-7-7-7-7-|
|----------------|-------------------|

                                                   ]-->2x
|-----------------|---------|
|-----------------|-5-------|
|-5-5-5-5-5-5-5-5-|---5-7---|
|-----------------|--------7|  

Make a joke and I will sigh and you will laugh and I will cry
Happiness I cannot feel like love to me is so unreal


Ponte:

|-----------------|-----5-----7-|                           
|-----------------|---5-----7---|
|--7--7-7-7-7-7-7-|-3-----5-----| 
|-----------------|-------------| 
                                                   ]--->2x
|-----------------7h9|-----------------|
|--------------7h9---|-----------------|
|-7-7-7-7-7-7-7------|-7-7-7-7-7-7-7-7-|
|--------------------|-----------------|

verso:
|-----------------|-----7h9-----------| 
|-----------------|--7h9--------------| 
|-7-7-7-7-7-7-7-7-|---------5-5-5-5-5-|
|-----------------|-------------------|

                                                   ]--2>x
|------------------|
|-------5----------|
|-5-5-5----5--7----|
|----------------7-|

And so as you hear these words telling you now of my state
I tell you to enjoy life I wish I could but it's too late

|----------------|-------------------| 
|----------------|-------------------| 
|--7-7-7-7-7-7-7-|-7-7-7-7-7-7-7-7-7-|
|----------------|-------------------|
                                           ]---------> 2x
                                                 
|-----------------|---------|
|-----------------|-5-------|
|-5-5-5-5-5-5-5-5-|---5-7---|
|-----------------|--------7|


Enviada por Sem inscrição
Nº de acordes: