Biffy Clyro

Folding Stars

Biffy Clyro

11 exibições
Intro (0:04)
G----------------------------------------------|
D----------------------------------------------|
A-4-4-4-5-5-5----------------------------X4----|
E-------------2-3-3-3-3-3-3-3-3-3-3------------|

Verse (0:23)
G----------------------------------------------|
D----------------------------------------------|
A-4-4-4-5-5-5----------------------------X4----|
E-------------2-3-3-3-3-3-3-3-3-3-3------------|

Pre chorus (0:41)
G----------------------------------------------|
D----------------------------------------------|
A----------------------------------------X2----|
E-0-0-0-0-2-2-2-2/-3-3-3-3/-5-5-5-5------------|

Chorus (0:51)
G---------------------------------------------------------------------|
D---------------------------------------------------------------------|
A-5-5-5-5-5-5-5-5-----------------------------------------------------|
E-----------------5-5-5-5-5-5-5-5-5-5-5-5-5-5-5-5-7-7-7-7-7-7-7-7-----|

----------------------------------------------------------------------|
----------------------------------------------------------------------|
---------------------------------5-5-5-5-5-5-5-5----------------------|
-3-3-3-3-3-3-3-3-0-0-0-0-0-0-0-0-----------------5-5-5-5-5-5-5-5------|

Bridge (1:10)
G----------------------------------------------|
D----------------------------------------------|
A-4-4-4-5-5-5----------------------------X2----|
E-------------2-3-3-3-3-3-3-3-3-3-3------------|

Verse (1:19)
G----------------------------------------------|
D----------------------------------------------|
A-4-4-4-5-5-5----------------------------X4----|
E-------------2-3-3-3-3-3-3-3-3-3-3------------|

Pre chorus (1:38)
G----------------------------------------------|
D----------------------------------------------|
A----------------------------------------X2----|
E-0-0-0-0-2-2-2-2/-3-3-3-3/-5-5-5-5------------|

Chorus (1:47)
G---------------------------------------------------------------------|
D---------------------------------------------------------------------|
A-5-5-5-5-5-5-5-5-----------------------------------------------------|
E-----------------5-5-5-5-5-5-5-5-5-5-5-5-5-5-5-5-7-7-7-7-7-7-7-7-----|

----------------------------------------------------------------------|
----------------------------------------------------------------------|
---------------------------------5-5-5-5-5-5-5-5-------------------X2-|
-3-3-3-3-3-3-3-3-0-0-0-0-0-0-0-0-----------------5-5-5-5-5-5-5-5------|

Bridge (2:24)
G-----------------------------------|
D-----------------------------------|
A-4-4-4-5-5-5-------------------X4--|
E-------------2-3~~~~~~~~~~~~~~~~~--|

(2:43)
G----------------------------------------------|
D----------------------------------------------|
A----------------------------------------X4----|
E-0-0-0-0-2-2-2-2/-3-3-3-3/-5-5-5-5------------|

Chorus (3:02)
G---------------------------------------------------------------------|
D---------------------------------------------------------------------|
A-5-5-5-5-5-5-5-5-----------------------------------------------------|
E-----------------5-5-5-5-5-5-5-5-5-5-5-5-5-5-5-5-7-7-7-7-7-7-7-7-----|

----------------------------------------------------------------------|
----------------------------------------------------------------------|
---------------------------------5-5-5-5-5-5-5-5-------------------X2-|
-3-3-3-3-3-3-3-3-0-0-0-0-0-0-0-0-----------------5-5-5-5-5-5-5-5------|

(3:39)
G----------------------------------------------|
D----------------------------------------------|
A-4-4-4-5-5-5----------------------------X3----|
E-------------2-3-3-3-3-3-3-3-3-3-3------------|

Ending (3:54)
G-------------------------------------|
D-------------------------------------|
A-4-4-4-5-5-5-5\10~~~~~~~~~~~~~~------|
E-------------------------------------|


Enviada por Sem inscrição
Nº de acordes: