Barão Vermelho

Por Que A Gente é Assim?

Barão Vermelho

1.661 exibições
  RIFF PRINCIPAL:

G |--------------------------|
D |--------------------------|
A |----------------3-5-5-----|
E |---5--5-5--5-5--------3---|



  1° PONTE:  (versão ao vivo)

  (canibais de nós mesmos...)

G |-------------------------------------------------------------------|
D |----------------------------------------------5-4h5-------7--------|
A |---5--5-5--4h5------2-3--5--5-5--4h5--2-------------5-5h7----7-5---|
E |---------------3--3----------------------0-3-----------------------|



  2° PONTE:
  (solinho estúpido)

G |---------------------------------------------------------------------------------------|
D |---------------------------------------------------------------------------------------|
A |---------------------------------------------------------------------------3-5---------|
E |---5--5-5--5-2--2-2-3-5--5-5--5-2--2-2-3-5--5-5--5-2-2-2-2-3-3-3-3-5-5-5-5-----5-3-5---|


  *3° PONTE:
  (Voce tem exatamente...)

G |------------------------------------------------------------------------------------------------|
D |--------------------------------------------------------------------------------------2---------|
A |-------------------2-3-4---4-3-2--2--0-2-5--4-5-6-----------4-4--2-4-2-2--2-2--2--2h4---4-2-----|
E |---5-4-3-2---2---5--------------------------------5--5--0-5---------------------------------5---|

G |------------------------------------------------------------------------------------------------|
D |------------------------------------------------------------------------------------------------|
A |------------4--4--2-4-2--2--0-2-5--4-5-6----------4--4-2-4-5-5-5-5-5-5-5-5-5-5-5----------------|
E |---5--5-0-5------------------------------5--5-0-5-----------------------------------------------|



  *OBS: Nessa parte o baixista fica improvisando loucamente na versão ao vivo, é
 estúpido colocar os improvisos na tablatura... mas como tem umas passagens legais
 eu misturei a versão de estúdio (que é chatinha) com a versão ao vivo.

  Basicamente é isso aí galera! 


Enviada por Sem inscrição
Nº de acordes: