Sem imagem

A Vampires Lament

Atreyu

56 exibições
Intro(Mostly guitar only, listen for the timing):
F----------------|
C----------------|
G----------------|
C-0---------0--0-|

Verse:
F--------------------------------|
C------------7875-----------87---|
G-----------------------------85-|
C-0-000000000----0-000000000-----|

F-----------------------------------|
C------------7875-----------8101312-|
G-----------------------------------|  x2
C-0-000000000----0-000000000--------|

End with:
F-----------------|
C---------8101312-|
G-----------------|
C-0-0-0-0---------|

Repeat Verse x2 without the last part above

Interlude:
F-----------------------------|
C-----------------------------|
G-5------3------7------5------|
C---0000---0000---0000---0000-|

F------------------------------|
C------------------------------|
G-5------3------7---7/8-5-0000-|
C---0000---0000---00------0000-|

F-----------------------------|
C-----------------------------|
G-5------3------7------5------|
C---0000---0000---0000---0000-|

F------------------------|
C------------------------|
G-5-------3------77777/8-|
C---00000---0000---------|

Chorus (Probably):
F---------------------------------|
C---------------------------------|
G-555-555----555-333-333----333---|  x2
C---------------------------------|

F---------------------------------|
C---------------------------------|
G---------------------------------|  x2
C-777-777----777-555-555----555---|

F---------------------------|
C---------------------------|
G---------------------------|
C-5-5-5--5-5-5--------5-5-5-|

Bridge:
No bass

Break:
F---------|-----------------|
C---------|-----------------|
G---------|-----------------| Repeat till Chorus start
C-0(Hold)-|-333-111-000-000-|

Outro:
F-----------------------------------------|
C-----------------------------------------|
G-----------------------------------------| Repeat till song ends
C-555555555-333333333-111111111-333333333-|


Enviada por Sem inscrição
Nº de acordes: