Athlete

You Got The Style

Athlete

41 exibições
Verse
G|-----------------|
D|---------2-------|
A|--5--2/5---4--2--|
E|2---------------5|
Last time through
G|----------|
D|------2~--|
A|--5-5-----|
E|2---------|

Chorus
On first chorus, wait until coming in, on the others, come straight in.
G|----------------------------------------|
D|----------------------------------------|
A|------4--442--225-57------4--442--225-5-|
E|012-22-----------5----2-22-----------5-5|

"You got the style and...."
G|--------------------------|
D|44-444--------------------|
A|------44-444-22-222-44-444|
E|--------------------------|

Outro
G|--------------------|
D|22-222-----------2--|
A|------22-022-4-1---2|
E|--------------------|


Enviada por Sem inscrição
Nº de acordes: