Athlete

Yesterday Threw Everything At Me

Athlete

54 exibições
Verse 1 :
G|-------------------------------------------------------------------------|
D|-------------------------------------------------------------------------|
A|-4---8-8---9-------4---8-8----------4/16---15-15---9-----4---8-8---------|
E|-----------------------------2-------------------------------------2-----|

Chorus 1:
G|-----------------------------------------------------------------|
D|-8-8-8-8-8-8-8-8-6-6-6-6-6-6-6-6-----------------4-4-4-4-4-4-4-4-|
A|---------------------------------4-4-4-4-4-4-4-4-----------------|
E|-----------------------------------------------------------------|

G|-----------------------------------------------------------------|
D|-8-8-8-8-8-8-8-8-6-6-6-6-6-6-6-6-----------------4~--------------|
A|---------------------------------4-4-4-4-4-4-4-4-----------------|
E|-----------------------------------------------------------------|

Verse 2:
G|-------------------------------------------------------------------------|
D|-------------------------------------------------------------------------|
A|-4---8-8---9-------4---8-8----------4/16---15-15---9-----4---8-8---------|
E|-----------------------------2-------------------------------------2-----|

Chorus 2: 
G|-------------------------------------------------------------------------|
D|-8-6-8-8-8-8-8-8-6-4-6-6-6-6-6-6---------------------4-4-4-4/16-16-16-16-|
A|---------------------------------4-4-4-4/16-16-16-16---------------------| x2
E|-------------------------------------------------------------------------|

Bridge: x2
G|-------------------------------------------------|
D|-------------------------------------------------|
A|-13-13-13-13-13-13-13-13\11-11-11-11-11-11-11-11/|
E|-------------------------------------------------|

G|---------------------------------------|
D|---------------------------------------|
A|-13-13-13-13-13-13-13-13\9-9-9-9-9-9-9-|
E|---------------------------------------|

Chorus 3:
G|---------------------------------------------------------------------|
D|-8-6-8-8-8-8-8-6-4-6-6-6-6-6---------------------4-4-4-4/16-16-16-16-|
A|-----------------------------4-4-4-4/16-16-16-16---------------------| x4
E|---------------------------------------------------------------------|


Enviada por Sem inscrição
Nº de acordes: