Athlete

Wires

Athlete

39 exibições
About 145 BPM

Piano intro

Verse (0.06) x 2

The rhythms a bit strange, mostly on the offbeat, listen and you’ll work it out soon enough.

G--------------------------------------|
D--------------------------------------|
A--6---6---4h6---6---4---4---3h4---4---|
E--------------------------------------|

Chorus (0.42) x 2

This is the basic, there maybe a couple of passing notes that I’ve missed, any comments 
be great.

G------------------------------------------------------------------|
D------------------------------------------------------------------|
A-------------------------------------6-6-6-6-6-6-/18-18-4-4-4-4-4-|
E-2-3-4-4-4-4-4-4-4-4-4-4-4-4-4-4-4-4------------------------------|

Verse x 4 (1.13)

Chorus (2.11) x 2

End chorus on

G------------------------------------------|
D------------------------------------------|
A-4-4-4-4-4-4-4-4-/16-16-16-16-16-16-16-16-|
E------------------------------------------|

Bridge (2.43)

G---------------------------------------------------------------------|
D---------------------------------------------------------------------|
A--------------------6-6-6-6-6-6-6-6------------------4-4-4-4-4-4-4-4-|  x2
E-4-4-4-4-4-4-4-4---------------------2-2-2-2-2-2-2-2-----------------|

G---------------------------------|
D---------------------------------|
A-7-7-7-7-7-7-7-7-6-6-6-6-6-6-6-6-|
E---------------------------------|

Guitar only bridge bit (3.19)

Ending (3.26) x 4

G---------------------------------------------------------------------------|
D---------------------------------------------------------------------------|
A-----------------------------------4-4-4-4-16-16-16-16-4-4-4-4-16-16-16-16-|
E-4-4-4-4-4-4-4-4-2-2-2-2-2-2-2-2-2-----------------------------------------|

End on

G---------------------------------|
D---------------------------------|
A---------------------------------|
E-4----------------2--------------|


Enviada por Sem inscrição
Nº de acordes: