As Tall As Lions

Love Love Love

As Tall As Lions

14 exibições
Into/Verse:

G|---------------------------------------------------------------------------|
D|---------------------------------------------------------------------------|
A|------------------------------------------4-4-------------4-4--------------|
E|--4-----4-4-----4P3----3-3---------0---------------0-----------------------|


Chorus

G|---------------------------------------------------------------------------|
D|---------------------------------------------------------------------------|
A|-------------------------------------2------4------------------------------|
E|-----------0~~~~-----------------------------------------------------------|

post chorus
 
G|---------------------------------------------------------------------------|
D|------------------------------4--------------------------------------------|
A|------------------------------------------4-4-------------4-4-----2--------|
E|--4-----4-4-----4P3----3-3---------0---------------0-----------------------|


Bridge
 
G|---------------------------------------------------------------------------|
D|---------------------------------------------------------------------------|
A|------------------------4-----4--------------------------------------------|
E|----4------2------0--------------------------------------------------------|


Enviada por Sem inscrição
Nº de acordes: