Armandinho

Desenho De Deus

Armandinho

2.718 exibições
começa soh o violão e o Baixo entra com a bateria!!

Quando Deus te desenhoo..

G|-----------------------------------------------------|
D|------------7-----------------------7--7-9-7-9-7-----|
A|--------7-9----7-9-7------------7-9--------------9---|
E|-5--7-9--------------9-10--7-10----------------------|

(Não tem parada na hora q termina a melodia!!)

Na beira do mar..

G|-------------------------------------------------------------------------------------------------|
D|-------------------------------------------------------------------------------------2----2------|
A|-4--2-4-4--4-4--2-4-4--4-2--0-2-2--2-2--0-2-2--2-4--2-4-4--4-4--2-4-4--4-2--0-2-2--2----2---2----|
E|----------------------------------------------------------------------------------------------0--|

papai do céu na hora de fazer você....

G|-----------------------------------------------------|
D|------------7-----------------------7--7-9-7-9-7-----|
A|--------7-9----7-9-7------------7-9--------------9---|
E|-5--7-9--------------9-10--7-10----------------------|

soh muda na hora de ¨Na beira do mar..¨


Enviada por Sem inscrição
Nº de acordes: