Zé Neto e Cristiano

Notificação Preferida

Zé Neto e Cristiano

9 exibições
Capotraste 4ª casa

Tom: C
Intro: C9  D  Bm7  Em7

Parte 1 de 2
   C9              D  
E|------------------------------------------|
B|-------3-------------3--------------------|
G|-----0---0---------2---2---2--------------|
D|---2-------2-----0-------0---0------------|
A|-3-----------3----------------------------|
E|------------------------------------------|

Parte 2 de 2
   Bm7             Em7
E|------------------------------------------|
B|-------3---------------3------------------|
G|-----2---2-----------0---0----------------|
D|---4-------4-------2-------2--------------|
A|-2-----------2---------------2------------|
E|-----------------0------------------------|

Verso:
 C9     D
Já doeu
           Bm7        Em7
Mas hoje não dói mais
 C9       D
Tanto fiz
           Bm7      Em7
Que agora tanto faz

Dedilhado primeira parte:

Parte 1 de 2
   C9              D  
E|------------------------------------------|
B|-------3-------------3--------------------|
G|-----0---0---------2---2---2--------------|
D|---2-------2-----0-------0---0------------|
A|-3-----------3----------------------------|
E|------------------------------------------|

Parte 2 de 2
   Bm7             Em7
E|------------------------------------------|
B|-------3---------------3------------------|
G|-----2---2-----------0---0----------------|
D|---4-------4-------2-------2--------------|
A|-2-----------2---------------2------------|
E|-----------------0------------------------|

Pré-Refrão:
                  C9
O nosso amor calejou
                      D
Apanhou, apanhou que cansou
                            Bm7
Na minha cama cê fez tanta falta
                        Em7
Que o meu coração te expulsou

             C9
Não tem mais eu e você
      D
Tá facin de entender
   C9
Você me deu aula
                          D  C9/E  D/F#
De como aprender te esquecer

Refrão:
                C9
Foi, mas não é mais
                          D
A minha notificação preferida
                Bm7
Já foi, mas não é mais
                      Em7
A número um da minha vida
             C9  D
Sinto em te diz__er
                   Em7
Mas eu já superei você

Solo:
C9  D  Em7

Solo Refrão:

E|-----------------------------------------------------|
B|-----------------------------------------------------|
G|-----0-2/4~------0-4/7~--5/7-5-2-2h4~----------------|
D|-2-4--------2-4--------------------------------------|
A|-----------------------------------------------------|
E|-----------------------------------------------------|

Pré-Refrão:
                  C9
O nosso amor calejou
                      D
Apanhou, apanhou que cansou
                            Bm7
Na minha cama cê fez tanta falta
                        Em7
Que o meu coração te expulsou

             C9
Não tem mais eu e você
      D
Tá facin de entender
   C9
Você me deu aula
                          D  C9/E  D/F#
De como aprender te esquecer

Refrão:
                C9
Foi, mas não é mais
                          D
A minha notificação preferida
                Bm7
Já foi, mas não é mais
                      Em7
A número um da minha vida
             C9  D
Sinto em te diz__er
                   Em7
Mas eu já superei você

                C9
Foi, mas não é mais
                          D
A minha notificação preferida
                Bm7
Já foi, mas não é mais
                      Em7
A número um da minha vida
             C9  D
Sinto em te diz__er
                   Em7
Mas eu já superei você (Solo final)
 C9     D            Em7
Já doeu,  mas hoje não dói mais

Solo Final:

E|---------------x-x-----------------------------------|
B|---------------x-x-----------------------------------|
G|-0-2-4-4/7\4~--x-x--2h4p2~---------------------------|
D|---------------x-x---------4b5r4--0h2----------------|
A|-----------------------------------------------------|
E|-----------------------------------------------------|


Enviada por Sem inscrição
Nº de acordes: 7