Tom: E

Intro: E  B9  F#  G#m  E  B9

  	    E      B9 
E|---------------------------| 
B|----------9---9--7---------| 
G|--------------------9-8----| 
D|--9--9--9------------------| 
A|---------------------------| 
E|---------------------------| 

   	     F# 
E|------------------------------------------| 
B|------------------------------------------| 
G|--8--8--8--6--6--6--6--8--6-----8---------| 
D|-----------------------------9------------| 
A|------------------------------------------| 
E|------------------------------------------| 

  	    E      B9 
E|---------------------------| 
B|----------9---9--7---------| 
G|--------------------9-8----| 
D|--9--9--9------------------| 
A|---------------------------| 
E|---------------------------| 

E         B9              F# 
Eu bebi, chorei, quando tocou aquela moda 
G#m 
Alô DJ! 
E           B9           F# 
Eu bebi, chorei, toca de novo por favor 
  G#m 
Aperta o play 

B9                           F# 
Briguei, depois jurei nunca mais te procurar 
    G#m                         E 
Foi só beber mais umas, deu vontade de ligar 
    B9                          F# 
Liguei, não me atendeu, só deu na caixa postal 
     G#m                            E 
E agora o que que eu faço, Deus eu tô passando mal 
 C#m             B9                  F# 
Passou cinco minutos, me mandou uma mensagem 
C#m              B9                        F# 
Dizendo que tá tarde, pra eu parar com essa bobagem 
C#m                B9                   F# 
Falou que tava triste, mas que tudo acabou 
C#m           B9             F# 
E bem naquela hora nossa música tocou


Enviada por Sem inscrição
Nº de acordes: 5