Victor e Leo

Venha Ver O Mar

Victor e Leo

224 exibições
Capotraste 4ª casa

Tom: C
Intro: (C  F  C  F) 2x

e|-------12-12-12-12----12----12-14-16-|-------12-12-12-12----12----12-------|
B|-12-14-------------14----14----------|-12-14-------------14----14----14-12-|
G|-------------------------------------|-------------------------------------| (2x)
D|-------------------------------------|-------------------------------------|
A|-------------------------------------|-------------------------------------|
E|-------------------------------------|-------------------------------------|

C            F
 Sua nobreza é coisa rara de se ver
C                F
 Tenho certeza, nunca vou te esquecer
Am                  F
 Não precisa de promessa quando a gente crê
Am                F                  G
 Fica tudo bom à beça só de ouvir você
     F                  G
Sei não, imagine ao te ver
     F  G
Sei não

Refrão:
C                              F
 Vem, amor, amar, venha ver a lua
C                               F
 Venha ver o mar, que eu tô na sua (2x)

Solo 2x: C  F  C  F

E|-------12-12-12-12----12----12-14-16-|-------12-12-12-12----12----12-------|
B|-12-14-------------14----14----------|-12-14-------------14----14----14-12-|
G|-------------------------------------|-------------------------------------|  (2x)
D|-------------------------------------|-------------------------------------|
A|-------------------------------------|-------------------------------------|
E|-------------------------------------|-------------------------------------|


C            F
 Sua nobreza é coisa rara de se ver
C                F
 Tenho certeza, nunca vou te esquecer
Am                  F
 Não precisa de promessa quando a gente crê
Am                F                  G
 Fica tudo bom à beça só de ouvir você
     F                  G
Sei não, imagine ao te ver
     F  G
Sei não

Refrão:
C                              F
 Vem, amor, amar, venha ver a lua
C                               F
 Venha ver o mar, que eu tô na sua (4x)

Solo Final: C  F  C  F
                                                                        F          C
e|-------12-12-12-12----12----12-14-16-|-------12-12-12-12----12----12--5-5-5-5-5--4-|
B|-12-14-------------14----14----------|-12-14-------------14----14-----7-7-7-7-7--7-|
G|-------------------------------------|--------------------------------7-7-7-7-7--6-|
D|-------------------------------------|--------------------------------6-6-6-6-6--4-|
A|-------------------------------------|--------------------------------5-5-5-5-5--5-|
E|-------------------------------------|--------------------------------5-5-5-5-5--4-|


Enviada por Sem inscrição
Nº de acordes: 4