Sem imagem

Search And Destroy

The Stooges

173 exibições
Riff 1
e|-----------------------------------------------------|
B|-----------------------------------------------------|
G|-6-6-6-6-6-6--11-11-11-11----------------------------|
D|-6-6-6-6-6-6--11-11-11-11--11-11---------------------|
A|-4-4-4-4-4-4--9--9--9--9---11-11---------------------|
E|-4-4-4-4-4-4--9--9--9--9---9--9----------------------|

Riff 2 (solo da intro)
e|----------------------------|-----------|--------------------------------------|
B|----------------------------|-----------|--------------------------------------|
G|------9--11--11b(13)-11h9---|-----9-----|--9--11--9--11b(13)-11--9--11--9b(10)-|
D|--11------------------------|-11-----11-|--------------------------------------|
A|----------------------------|-----------|--------------------------------------|
E|----------------------------|-----------|--------------------------------------|

Riff 3
e|----------------------------------------------------------------|
B|----------------------------------------------------------------|
G|-6-6-6-6-0--9-------------9--6-6-6-6-6-6--11-11-11-11-----------|
D|-6-6-6-6-0--9--7-7-7-7-0--9--6-6-6-6-6-6--11-11-11-11--11-11----|
A|-4-4-4-4-0--7--7-7-7-7-0--7--4-4-4-4-4-4--9--9--9--9---11-11----|
E|-4-4-4-4-0--7--5-5-5-5-0--7--4-4-4-4-4-4--9--9--9--9---9--9-----|

Riff 4
e|-----------------------------------------------------
B|-----------------------------------------------------
G|-6-6-X--4-4-X---------4-4-4-4------------------------
D|-6-6-X--4-4-X--7-7-X--4-4-4-4------------------------
A|-4-4-X--2-2-X--5-5-X--2-2-2-2------------------------
E|-4-4-X--2-2-X--5-5-X--2-2-2-2------------------------

Riff 5
e|-----------------------------------------------------
B|-----------------------------------------------------
G|-6-6-6--4-4-4---------4-4-4-4------------------------
D|-6-6-6--4-4-4--7-7-7--4-4-4-4------------------------
A|-4-4-4--2-2-2--5-5-5--2-2-2-2------------------------
E|-4-4-4--2-2-2--5-5-5--2-2-2-2------------------------

Riff 6
e|--------------------------------------|-----------------------------------------
B|--------------------------------------|-----------------------------------------
G|--------------------------------------|-----------------------------------------
D|-4-4-4-4-4-4-4-4-4-4-4-4--------------|-7-7-7-7-7-7-7-7-7-7-7-7-----------------
A|-4-4-4-4-4-4-4-4-4-4-4-4--------2h-4--|-7-7-7-7-7-7-7-7-7-7-7-7--------5h-7-----
E|-2-2-2-2-2-2-2-2-2-2-2-2--2h-4--------|-5-5-5-5-5-5-5-5-5-5-5-5--5h-7-----------

e|--------------------------------------|--------------------------------------------|
B|--------------------------------------|--------------------------------------------|
G|--------------------------------------|--------------------------------------------|
D|-2-2-2-2-2-2-2-2-2-2-2-2--------------|-6-6-6-6-6-6-6-6-6-6-6-6--------------------|
A|-2-2-2-2-2-2-2-2-2-2-2-2--------0h-2--|-6-6-6-6-6-6-6-6-6-6-6-6--------------------|
E|-0-0-0-0-0-0-0-0-0-0-0-0--0h-2--------|-4-4-4-4-4-4-4-4-4-4-4-4--------------------|


A musica segue essa ordem:

Riff 1 - 2x
Riff 2
Riff 3 - 2x
Riff 4 - 2x
Riff 6
Riff 3 - 2x
Riff 4 - 2x
Riff 6
Riff 5 - 4x
Riff 2
Riff 3 - 2x
Riff 4 - 2x
Riff 6
Riff 5 - 4x
Solo (a base enquanto toca o solo é o riff 5, várias vezes, até o fim da música)

---

Letra:

I'm a street walking cheater with a hand full of napalm 
I'm a runaway son of a nuclear A-bomb 
I am the world's forgotten boy 
The one who searches and destroys 

Honey gotta help me please 
Somebody gotta save my soul 
Baby, detonate for me 

Look out honey, 'cause mutant technology 
Ain't got time to make no apology 
Solar radiation in the dead of night 
Love in the middle of a fire fight 

Honey gotta strike a plan 
Somebody gotta save my soul 
Baby, tell em, take my mind 

I am the world's forgotten boy 
The one who's searchin', searchin' to destroy 
And honey I'm the world's forgotten boy 
The one who's searchin' only to destroy 

Look out honey, 'cause mutant technology 
Ain't got time to make no apology 
Solar radiation in the dead of night 
Love in the middle of a fire fight 

Honey gotta strike a plan 
Somebody gotta save my soul 
Baby, tell em, take my mind 

I am the world's forgotten boy 
The one who's searchin', searchin' to destroy 
And honey I'm the world's forgotten boy 
The one who's searchin', searchin' to destroy 

Forgotten boy, forgotten boy 
Forgotten boy said hey forgotten boy 

---

A musica é basicamente isso aí. qualquer correção, sugestão ou qualquer coisa é bem vinda.


Enviada por Sem inscrição
Nº de acordes: 0