The Police

Every Breath You Take

The Police

8.083 exibições
Capotraste 1ª casa

Tom: G

Intro: 

   G                                  Em
e|----------------------------------|-------------------------------------
B|---------0----------------0-------|-------------------------------------
G|-----2-----2---2------2-----2---2-|---------0---------------0-----------
D|---0---0-----0------0---0-----0---|-----4-----4---4-----4-----4---4-----
A|----------------------------------|---2---2-----2-----2---2-----2-------
E|-3----------------3---------------|-0---------------0-------------------

   C9              D9              G
e|---------------|---------------|----------------------------------------
B|-----3---1-----|-----5---3-----|---------0---------------0--------------
G|---0---0---0---|---0---0---0---|-----2-----2---2-----2-----2---2--------
D|-------------2-|-------------4-|---0---0-----0-----0---0-----0----------
A|-3-------------|-5-------------|----------------------------------------
E|---------------|---------------|-3---------------3----------------------


 G
Every breath you take
                   Em
And every move you make
                C9                    D9
Every bond you break, every step you take
                  G
I'll be watching you

              G
Every single day
                   Em
And every word you say
                C9                    D9
Every game you play, every night you stay
                  G   G7
I'll be watching you
     
               C   Bb9
Oh, can't you see
               G 
You belong to me?
                    A
How my poor heart aches
                      D 
With every step you take
                 G
Every move you make
                Em
Every vow you break
                 C9                      D9
Every smile you fake, every claim you stake
                  G
I'll be watching you

 Eb9
Since you've gone I've been lost without a trace
 F
I dream at night, I can only see your face
 Eb9
I look around, but it's you I can't replace
 F
I feel so cold, and I long for your embrace
 Eb9                        G      
I keep crying baby, baby please, 

(Intro)
 
               C   Bb9
Oh, can't you see
               G
You belong to me?
                    A 
How my poor heart aches
                     D9 
With every step you take
                 G
Every move you make
               Em
Every vow you break
                 C9                     D9
Every smile you fake, every claim you stake
                  G
I'll be watching you
                 C9                  D9
Every move you make, every step you take
                  G   
I'll be watching you
                  G
I'll be watching you



G
Every breath you take
                   Em
And every move you make
                 C9                   G
Every bond you break, every step you take
                  G
I'll be watching you


Every single day
                   Em
And every word you say
                C9                     G
Every game you play, every night you stay
                  G  
I'll be watching you

                 G
Every move you make
               Em
Every vow you break
                 C9                     G
Every smile you fake, every claim you stake
                  G
I'll be watching you


Every single day
                   Em
And every word you say
                C9                    G
Every game you play, every night you stay
                  G  
I'll be watching you

G
Every breath you take

Every move you make
               Em
Every vow you break
                 DC9                     G
Every smile you fake, every claim you stake
                  G
I'll be watching you...


Enviada por Sem inscrição
Correção por equipepegacifras
Nº de acordes: 12