Afinação(C,G,C,F,A,D)

      Verso:1
D|-----------------------------------------|
A|-----------------------------------------|
F|-----------------------------------------|
C|-----------------------------------------|
G|--0--6--/11----5-------------------------|
C|--0--6--/11----5-------------------------|

             Verso:2
D|-----------------------------------------|
A|-----9--9br---8-8br---9-9br---6b---------|
F|---7--------6-------7-------8-8b---------|
C|-----------------------------------------|
G|-----------------------------------------|
C|-----------------------------------------|
               Repete o Verso:1
D|------------------------------------------------------------11-------10----9----|
A|-101010101010101010999999999999998888888888877777777-101010----10-999--9888-87br|
F|--------------------------------------------------------------------------------|
C|--------------------------------------------------------------------------------|
G|--------------------------------------------------------------------------------|
C|--------------------------------------------------------------------------------|
                     Repete Verso:2
                     Repete Verso:1 
                                      (abafado)
D|------------------------------|---------------------------------------------|
A|------------------------------|---------------------------------------------|
F|------------------------------|---------------------------------------------|
C|------------------------------|-----------------------(onze)----------------|
G|-0~~~~~-6~~~~~-11~~~~~-5~~~~~-|-00000000-66666666-1111111111111111-55555555-|
C|-0~~~~~-6~~~~~-11~~~~~-5~~~~~-|-00000000-66666666-1111111111111111-55555555-|


Espere a pausa da musica e depois toque o Verso:1
Depois de cada pausa da musica toque o Verso:1
Em nehuma das pausas muda o verso é sempre o 1.


D|--------------------------------------------------------------------|
A|--10-10-10-10-10-10-10-10-9-9-9-9-9-9-9-9-8-8-8-8-8-8-8-8-8---------|
F|--------------------------------------------------------------------|
C|--------------------------------------------------------------------|
G|--------------------------------------------------------------------|
C|--------------------------------------------------------------------|

   Verso:1 novamente.


Letra:

MAY I PLEASE REMAIN IN THIS SPACE,
FOR DARTS SCREACH BY MY DESIRES,
MAY I PLEASE REMAIN IN THIS SPACE,
FOR DARTS SCREACH BY MY DESIRES,

ART THOU NOT HUMAN MAN (X 8)
NOT HUMAN MAN ART THOU

LIFE THREATENING LIFESTYLES,
A HITMAN, A NUN, LOVERS,
LIFE THREATENING LIFESTYLES,
A HITMAN, A NUN, LOVERS,

ART THOU NOT HUMAN MAN (X 8)
NOT HUMAN MAN ART THOU

CLOCK MEN FOR THEY WILL FAIL,
FEAR NOT THE GODS THAT COME FROM THE SKY, 
LONG NOT FOR THE ONE WHO'VE LOST THEIR WAY,

ARISE AS DID THE GODS NINTI, 
ARISE AS DID THE GODS NINTI,
ARISE AS DID THE GODS NINTI, AND ISHKUR, ISHKUR. 


Enviada por Sem inscrição
Nº de acordes: 1