Sem imagem

Long Gone

Syd Barrett

74 exibições
Intro:   
 e|---------------0-0-0-0----0-0-0-0-----0-0-0-0-
 B|---------------0-0-0-0----0-0-0-0-----0-0-0-0-
 G|---------------0-0-0-0----0-0-0-0-----1-1-1-1-
 D|--------------------------------------2-2-2-2-
 A|--------------------------------------2-2-2-2-
 E|--0--3--5--6-----------3----------0---0-0-0-0-
Verso:
 e|------------------0-0-0-0-----0-0-0-0-
 B|------------------0-0-0-0-----0-0-0-0-
 G|------------------0-0-0-0-----0-0-0-0-
 D|--------------------------------------
 A|--------------------------------------
 E|--0---3---5---6-----------3-----------

 E|------0-0-0-0-----0-0-0-0-----0-0-0-0-
 B|------0-0-0-0-----0-0-0-0-----0-0-0-0-
 G|------0-0-0-0-----0-0-0-0-----1-1-1-1-
 D|------------------------------2-2-2-2-
 A|------------------------------2-2-2-2-
 E|--6-----------3-----------0---0-0-0-0-

 E|----------------0-0-0-0----0-0-0-0-----0-0-0-0-----0-0-0-0-
 B|----------------0-0-0-0----0-0-0-0-----0-0-0-0-----0-0-0-0-
 G|----------------0-0-0-0----0-0-0-0-----0-0-0-0-----0-0-0-0-
 D|-----------------------------------------------------------
 A|------------7-----------5----------3-------2---0-----------
 E|--0--3--5--------------------------------------------------

 E|------0-0-0-0-----0-0-0-0-----0-0-0-0-----0-0-0-0-
 B|------0-0-0-0-----0-0-0-0-----0-0-0-0-----0-0-0-0-
 G|------0-0-0-0-----0-0-0-0-----0-0-0-0-----0-0-0-0-
 D|--------------------------------------------------
 A|--------------------------------------------------
 E|--------------3-----------2-----------1-----------

 
 E|------0-0-0-0-----------------0-0-0-0-----0-0-0-0-
 B|------0-0-0-0-----------------0-0-0-0-----0-0-0-0-
 G|--1---0-0-0-0-----------------1-1-1-1-----1-1-1-1-
 D|--2---------------------------2-2-2-2-----2-2-2-2-
 A|--2---------------------------2-2-2-2-----2-2-2-2-
 E|--------------3---2---1---0---0-0-0-0-0---0-0-0-0-

Am       Am
And I stood very still by the window sill 
D D
and I wondered for those I love still 
G A
I cried in my mind where I stand behind 
A A
the beauty of love's in her eyes... 

Riff

She was long gone, long, long gone 
she was gone, gone, the bigger they come 
the larger her hand 'till no one understands 
why for so long she'd been gone.

      Am         Am
And I borrowed the page from a leopard's cage 
D D
and I prowled in the evening sun's glaze 
G A
her head lifted high to the light in the sky 
A A
the opening dawn on her face... 


Intervalo:
  
 E|------------------0-0-0-0-----0-0-0-0-
 B|------------------0-0-0-0-----0-0-0-0-
 G|------------------0-0-0-0-----0-0-0-0-
 D|--------------------------------------
 A|--------------------------------------
 E|--0---3---5---6-----------3-----------

    
 E|------0-0-0-0-----0-0-0-0-----0-0-0-0-
 B|------0-0-0-0-----0-0-0-0-----0-0-0-0-
 G|------0-0-0-0-----0-0-0-0-----1-1-1-1-
 D|------------------------------2-2-2-2-
 A|------------------------------2-2-2-2-
 E|--6-----------3-----------0---0-0-0-0-

     
 E|------------------0-0-0-0-----0-0-0-0-----0-0-0-0-----0-0-0-0-
 B|------------------0-0-0-0-----0-0-0-0-----0-0-0-0-----0-0-0-0-
 G|------------------------------------------0-0-0-0-----0-0-0-0-
 D|--------------6-----------6-----------0-----------0-----------
 A|-----/7---5---7-----------5-----------3-----------2-----------
 E|--0-----------------------------------------------------------

 E|------0-0-0-0-----0-0-0-0-----0-0-0-0-----0-0-0-0-
 B|------0-0-0-0-----0-0-0-0-----0-0-0-0-----0-0-0-0-
 G|------0-0-0-0-----0-0-0-0-----0-0-0-0-----0-0-0-0-
 D|--0-----------0-----------0-----------0-----------
 A|--0-----------------------------------------------
 E|--------------3-----------2-----------1-----------
 
 E|------0-0-0-0-----------------0-0-0-0-----0-0-0-0-
 B|------0-0-0-0-----------------0-0-0-0-----0-0-0-0-
 G|------0-0-0-0-----------------1-1-1-1-----1-1-1-1-
 D|------------------------------2-2-2-2-----2-2-2-2-
 A|--2---------------------------2-2-2-2-----2-2-2-2-
 E|--------------3---2---1---0---0-0-0-0-0---0-0-0-0-


  She was long gone long, long gone 
she was gone, gone, the bigger they come 
the larger her hand 'till no one understands 
why for so long she'd been gone. 


Am       Am
And I stood very still by the window sill 
D D
and I wondered for those I love still 
G A
I cried in my mind where I stand behind 
A A
the beauty of love's in her eyes... 


   
 E|------------------0-0-0-0-----0-0-0-0-
 B|------------------0-0-0-0-----0-0-0-0-
 G|------------------0-0-0-0-----0-0-0-0-
 D|--------------------------------------
 A|--------------------------------------
 E|--0---3---5---6-----------3-----------

    She was long gone long, long gone     
     
 E|------0-0-0-0-----0-0-0-0-----0-0-0-0-
 B|------0-0-0-0-----0-0-0-0-----0-0-0-0-
 G|------0-0-0-0-----0-0-0-0-----1-1-1-1-      (e Termine com E)
 D|------------------------------2-2-2-2-
 A|------------------------------2-2-2-2-
 E|--6-----------3-----------0---0-0-0-0-


Enviada por Sem inscrição
Nº de acordes: 4